Sound will begin in 5 seconds

bb kj,

01234567891011121314151617181920212223
E
B
G
D
A
E
B
0 1 2 3 4 5 6 7 8 9 10 11 12 13 14 15 16 17 18 19 20 21 22 23
Song Science #1: How Pros Use 6 Chords to Write Hit Songs
(/) Slide Up  (\) Slide Down  (h) Hammer On  (p) Pull Off  (b) Bend (r) Release (v) Vibrato

(W|WW) Whole (H|HH) Half (Q|QQ) Quarter (E|EE) 8th (S|SS) 16th (T|TT) 32nd (X|XX) 64th

Stave 1:
t: W W W W W W W W W W W W W W W W W W W W W W W W W W W
G|-0-0-3-----0----3-----------3----0-------0-0-3-----0-3-----------3-
D|--------------------5-3----------------------------------5-3-------
A|-------3-5--------3-----5-3--------------------3-5-----3-----5-3---
E|-------------------------------------------------------------------

Stave 2:
t: W W W W W W W W W W W W W W W W W W W W
G|-----------------------------------------------------------------
D|-----------------------------------------------------------------
A|-----------------------------------------------------------------
E|-3-3-1-3-------6-3----3-3-1-3-------3-3-1-3-------6-3----3-3-1-3-

Stave 3:
t: W WWW WW W W W W
G|---------------------
D|-0-0h3p0-------------
A|---------2p0---------
E|-------------2-2-0-2-

Stave 4:
t: W W WWW W W WWW W
G|--------------------------------
D|-3-3-------------3-3------------
A|-----4p2p0-----------4p2p0------
E|---------------------------2----

Stave 5:
t: W W W W W W W W W W
G|------------------------------
D|-----2-------------0----------
A|---2---2---------2---2--------
E|-0-------------3----------3-2-

Stave 6:
t: W W W W
G|------------
D|------------
A|------------
E|-7----3-2-0-

Stave 7:
t: W W W W W W W W W W W W W H H H W W W W W W W W W
G|---------------------------------------------------------------------------------
D|---------------------------------------------------------------------------------
A|-4-------4----5----9----------2----2-2-0-2-3-2-0-2----2-2-2----0-2-3-2-0---0-----
E|-------------------------------------------------------------------------3---3-0-

Stave 8:
t:
G|-
D|-
A|-
E|-

http://www.guitartabcreator.com
Guitar Tab Creator is intended to store guitar tab created through the tool. It currently does not support in-line text editing. Any text you place in here will be lost. If you need to comment on your tab, please use the "Tab Notes" section located below.