Sound will begin in 5 seconds

Jupiter Topaz solo

01234567891011121314151617181920212223
E
B
G
D
A
E
B
0 1 2 3 4 5 6 7 8 9 10 11 12 13 14 15 16 17 18 19 20 21 22 23
Song Science #1: How Pros Use 6 Chords to Write Hit Songs
(/) Slide Up  (\) Slide Down  (h) Hammer On  (p) Pull Off  (b) Bend (r) Release (v) Vibrato

Stave 1:

E|---------------------7-------------------------------10--11b10--8--10--8------13------11------10-----------
B|--9--5--9v--12--10v-----7--8v--7---------8--11--13v---------------------------------------------------13v--
G|----------------------------------7--8v-----------------------------------10------10------10------10-------
D|-----------------------------------------------------------------------------------------------------------
A|-----------------------------------------------------------------------------------------------------------
E|-----------------------------------------------------------------------------------------------------------

Stave 2:

E|------------------------------------------------------------------------------------------------------
B|-------10v--11v--13--15v--13--11--10v--10--11--10v----------------------------------------------------
G|--10v-----------------------------------------------10v--7--8--10-------------------------------------
D|-------------------------------------------------------------------10--8--7-----------------7--8--10--
A|-----------------------------------------------------------------------------10--8v--8--10------------
E|------------------------------------------------------------------------------------------------------

Stave 3:

E|------------7--8--10--18v--17----------
B|--7--8--10---------------------18--20--
G|---------------------------------------
D|---------------------------------------
A|---------------------------------------
E|---------------------------------------

Stave 4:

E|--------------15--17--18--20b20--17--18--20--20--18--17--15----------17--20--17------------------15--18--
B|--15--17--18-----------------------------------------------------18--------------18----------16----------
G|-------------------------------------------------------------17----------------------17--15--------------
D|---------------------------------------------------------------------------------------------------------
A|---------------------------------------------------------------------------------------------------------
E|---------------------------------------------------------------------------------------------------------

Stave 5:

E|--15----------18--17--15------------------------------------------------------------------------
B|------16------------------18--17--15------------------------------------------------------------
G|----------15--------------------------17--15--14---------------------------------------14--15v--
D|--------------------------------------------------17--15--14---------------14--15--17-----------
A|--------------------------------------------------------------17--15v--17-----------------------
E|------------------------------------------------------------------------------------------------

Stave 6:

E|----------------------------------------------|-------------------------------------------|-------------
B|-----11-----10--8--10--11--8b10---------------|-----11--10------13--11v--/15--13--15--13--|--8--10--11--
G|---------------------------------10--7--7b10--|--8----------10----------------------------|-------------
D|--8------7------------------------------------|-------------------------------------------|-------------
A|----------------------------------------------|-------------------------------------------|-------------
E|----------------------------------------------|-------------------------------------------|-------------

Stave 7:

E|------------------
B|--15/13v--/18/23--
G|------------------
D|------------------
A|------------------
E|------------------

http://www.guitartabcreator.com
Guitar Tab Creator is intended to store guitar tab created through the tool. It currently does not support in-line text editing. Any text you place in here will be lost. If you need to comment on your tab, please use the "Tab Notes" section located below.