Sound will begin in 5 seconds

Something Like Harvest Moon

01234567891011121314151617181920212223
E
B
G
D
A
E
B
0 1 2 3 4 5 6 7 8 9 10 11 12 13 14 15 16 17 18 19 20 21 22 23
(/) Slide Up  (\) Slide Down  (h) Hammer On  (p) Pull Off  (b) Bend (r) Release (v) Vibrato

Stave 1:

E|---------------------------------------------------------7-----------------7-----------------7--------
B|-------------10---------------------10----------------8-----8-----------8-----8-----------8-----8-----
G|---------11------11-------------11------11---------6-----------6-----6-----------6-----9-----------9--
D|-----12--------------12-----12--------------12--------------------------------------------------------
A|------------------------------------------------7-----------------7-----------------7-----------------
D|--0----------------------0----------------------------------------------------------------------------

Stave 2:

E|-----------7-------------------------------------------------------------------------------------
B|--------8-----8----------------10----------------------10------------------------10--------------
G|-----9-----------9---------12------12--------------12------12----------------11------11------11--
D|-----------------------11--------------11------11--------------11--------12--------------12------
A|--7-----------------0----------------------12----------------------------------------------------
D|----------------------------------------------------------------------0--------------------------

Stave 3:

E|-----------------------------------------------------------------7--------------------7-----------
B|-------------10-------------------------10--------------------8-----8-----8--------8-----8-----8--
G|---------11------11------11---------11------11------11-----6-----------6--------6-----------6-----
D|-----12--------------12---------12--------------12------------------------------------------------
A|--------------------------------------------------------7--------------------7--------------------
D|--0--------------------------0--------------------------------------------------------------------

Stave 4:

E|-----------7--------------------7------------------------------------------------------------------
B|--------8-----8-----8--------8-----8-----8-------------10--------------------------10--------------
G|-----9-----------9--------9-----------9------------12------12------12----------12------12------12--
D|-----------------------------------------------11--------------11----------11--------------11------
A|--7--------------------7--------------------0--------------------------12--------------------------
D|---------------------------------------------------------------------------------------------------

http://www.guitartabcreator.com
Guitar Tab Creator is intended to store guitar tab created through the tool. It currently does not support in-line text editing. Any text you place in here will be lost. If you need to comment on your tab, please use the "Tab Notes" section located below.