Wonderful Tonight Fingerpicking

01234567891011121314151617181920212223
E
B
G
D
A
E
B
0 1 2 3 4 5 6 7 8 9 10 11 12 13 14 15 16 17 18 19 20 21 22 23
(/) Slide Up  (\) Slide Down  (h) Hammer On  (p) Pull Off  (b) Bend (r) Release (v) Vibrato

INTRO | EASY

E|--------------------------|--------------------------|--------------------------|--------------0--------
B|--------------0-----------|--------------3-----------|--------------------------|--------3--------3-----
G|--------0--------0-----0--|--------2--------2-----0--|--------0-----------------|-----2-----2--------2--
D|-----0-----0--------0-----|-----0-----0--------0-----|-----2--------------------|--0--------------------
A|--------------------------|--------------------------|--3-----------------------|-----------------------
E|--3-----------------------|--2-----------------------|--------------------------|-----------------------

INTRO

E|-------------------------|-------------------------|-------------------------|--------------------------
B|--------------0----------|--------------0----------|--------------0----------|--------0-----1-----------
G|--------0--------2p0--2--|--------2--------2p0-----|--------0--------2p0-----|--2-----------------------
D|-----0-----0-------------|-----0-----0----------2--|-----2-----2-------------|-----0-----0--------------
A|-------------------------|-------------------------|--3----------------------|--------------0-----------
E|--3----------------------|--2----------------------|-------------------------|--2-----3-----------------



E|-------------------------|-------------------------|-------------------------|--------------------0-----
B|--3-----------0----------|--------------0----------|--------------0----------|--------0-----1-----------
G|--------0--------2p0--2--|--------2--------2p0-----|--------0--------2p0-----|--2--------------2-----2--
D|-----0-----0-------------|-----0-----0----------2--|-----2-----2-------------|-----0-----0--------------
A|-------------------------|-------------------------|--3----------------------|--------------0-----------
E|--3----------------------|--2----------------------|-------------------------|--2-----3-----------------

VERSE:

E|--------------------------|--------------------------|--------------------------|--------------0-----------
B|--3-----------0-----------|--------------3-----------|--------------1-----------|--------3--------3-----3--
G|--------0--------0-----0--|--------2--------2-----0--|--------0--------0-----0--|-----2-----2--------2-----
D|-----0-----0--------0-----|-----0-----0--------0-----|-----2-----2--------2-----|--0-----------------------
A|--------------------------|--------------------------|--3-----------------------|--------------------------
E|--3-----------------------|--2-----------------------|--------------------------|--------------------------



E|--------------------------|--------------------------|--------------------------|--------------0-----------
B|--------------0-----------|--------------3-----------|--------------1-----------|--------3--------3--------
G|--------0--------0-----0--|--------2--------2-----0--|--------0--------0-----0--|-----2-----2--------------
D|-----0-----0--------0-----|-----0-----0--------0-----|-----2-----2--------2-----|--0-----------------0--2--
A|--------------------------|--------------------------|--3-----------------------|--------------------------
E|--3-----------------------|--2-----------------------|--------------------------|--------------------------

CHORUS

E|--------------------------|--------------0-----------|--------------------------|--------------------------
B|--------------1-----------|--------3--------3-----3--|-----------0-----------0--|--------------0-----------
G|--------0--------0-----0--|-----2-----2--------2-----|--------0-----------0-----|--------0--------0-----0--
D|-----2-----2--------2-----|--0-----------------------|-----0-----------0--------|-----2-----2--------2-----
A|--3-----------------------|--------------------------|--------------------------|--------------------------
E|--------------------------|--------------------------|--3-----------2-----------|--0-----------------------



E|-----------------------------------------------------|--------------------------0--------------------------
B|--------------------------1--------------------------|--------------3-----------------3-----------3--------
G|--------------0-----------------0-----------0--------|--------2-----------2-----------------2--------------
D|--------2-----------2-----------------2--------------|--0--------------------------------------------------
A|--3--------------------------------------------------|-----------------------------------------------------
E|-----------------------------------------------------|-----------------------------------------------------

BREACK 1  

E|-------------------------|-------------------------|-------------------------|-----------------------
B|--------------0----------|--------------0----------|--------------0----------|--------0-----1--------
G|--------0--------2p0--2--|--------2--------2p0-----|--------0--------2p0-----|--2--------------------
D|-----0-----0-------------|-----0-----0----------2--|-----2-----2-------------|-----0-----0-----------
A|-------------------------|-------------------------|--3----------------------|--------------0--------
E|--3----------------------|--2----------------------|-------------------------|--2-----3--------------

BREACK 2

E|--------------------------------------------------|-----------------------------------------------
B|--------------------------0-----------------------|--------------------------0--------------------
G|--------------0-----------------0-----------0-----|--------------0-----------------0-----------0--
D|--------0-----------0-----------------0-----------|--------0-----------0-----------------0--------
A|--------------------------------------------------|-----------------------------------------------
E|--3-----------------------------------------------|--3--------------------------------------------

BRIDGE

E|--------------------------|--------------0-----------|--------------------------|--------------------------
B|--------------1-----------|--------3--------3-----3--|-----------0-----------0--|--------------0-----------
G|--------0--------0-----0--|-----2-----2--------2-----|--------0-----------0-----|--------0--------0-----0--
D|-----2-----2--------2-----|--0-----------------------|-----0-----------0--------|-----2-----2--------2-----
A|--3-----------------------|--------------------------|--------------------------|--------------------------
E|--------------------------|--------------------------|--3-----------2-----------|--0-----------------------



E|--------------------------|--------------0-----------|--------------------------|-----
B|--------------1-----------|--------3--------3-----3--|--------------1-----------|-----
G|--------0--------0-----0--|-----2-----2--------2-----|--------0--------0-----0--|-----
D|-----2-----2--------2-----|--0-----------------------|-----2-----2--------2-----|--0--
A|--3-----------------------|--------------------------|--3-----------------------|-----
E|--------------------------|--------------------------|--------------------------|-----

POST GRIDGE

E|-------------------------|-------------------------|-------------------------|--------------------0-----
B|--------------0----------|--------------0----------|--------------0----------|--------0-----1-----------
G|--------0--------2p0--2--|--------2--------2p0-----|--------0--------2p0-----|--2-----------------------
D|-----0-----0-------------|-----0-----0----------2--|-----2-----2-------------|-----0-----0-----2-----2--
A|-------------------------|-------------------------|--3----------------------|--------------0-----------
E|--3----------------------|--2----------------------|-------------------------|--2-----3-----------------



E|-------------------------|-------------------------|-------------------------|--------------------0-----
B|--3-----------0----------|--------------0----------|--------------0----------|--------0-----1-----------
G|--------0--------2p0--2--|--------2--------2p0-----|--------0--------2p0-----|--2-----------------------
D|-----0-----0-------------|-----0-----0----------2--|-----2-----2-------------|-----0-----0-----2-----2--
A|-------------------------|-------------------------|--3----------------------|--------------0-----------
E|--3----------------------|--2----------------------|-------------------------|--2-----3-----------------

OUTRO

E|--------------------------|--------------------------|--------------------------|--------------0-----------
B|-----------0-----------0--|-----------0-----------3--|--------------1-----------|--------3--------3-----3--
G|--------0-----------0-----|--------0-----------0-----|--------0--------0-----0--|-----2-----2--------2-----
D|-----0-----------0--------|-----2-----------4--------|-----2-----2--------2-----|--0-----------------------
A|--------------------------|--------------5-----------|--3-----------------------|--------------------------
E|--3-----------2-----------|--0-----------------------|--------------------------|--------------------------



E|-------------------------|-------------------------|-------------------------|--------------------0-----
B|--------------0----------|--------------0----------|--------------0----------|--------0-----1-----------
G|--------0--------2p0--2--|--------2--------2p0-----|--------0--------2p0-----|--2-----------------------
D|-----0-----0-------------|-----0-----0----------2--|-----2-----2-------------|-----0-----0-----2-----2--
A|-------------------------|-------------------------|--3----------------------|--------------0-----------
E|--3----------------------|--2----------------------|-------------------------|--2-----3-----------------



E|-------------------------|-------------------------|-------------------------|--------------------0-----|--------
B|--3-----------0----------|--------------0----------|--------------0----------|--------0-----1-----------|--3-----
G|--------0--------2p0--2--|--------2--------2p0-----|--------0-----------2p0--|--2-----------------------|--0-----
D|-----0-----0-------------|-----0-----0----------2--|-----2-----2-------------|-----0-----0-----2-----2--|--0-----
A|-------------------------|-------------------------|--3----------------------|--------------0-----------|--2-----
E|--3----------------------|--2----------------------|-------------------------|--2-----3-----------------|--3-----

							http://www.guitartabcreator.com
Chords

Instruments
{"strings":[[[".",".",".",".",".",".",".",".","|",".",".",".",".",".",".",".",".","|",".","_","_","_","_","_","_","_","|",".",".",".",".",0,".","."],[".",".",".",".",0,".",".",".","|",".",".",".",".",3,".",".",".","|",".","_","_","_","_","_","_","_","|",".",".",3,".",".",3,"."],[".",".",0,".",".",0,".",0,"|",".",".",2,".",".",2,".",0,"|",".","_",0,"_","_","_","_","_","|",".",2,".",2,".",".",2],[".",0,".",0,".",".",0,".","|",".",0,".",0,".",".",0,".","|",".",2,"_","_","_","_","_","_","|",0,".",".",".",".",".","."],[".",".",".",".",".",".",".",".","|",".",".",".",".",".",".",".",".","|",3,"_","_","_","_","_","_","_","|",".",".",".",".",".",".","."],[3,".",".",".",".",".",".",".","|",2,".",".",".",".",".",".",".","|",".","_","_","_","_","_","_","_","|",".",".",".",".",".",".","."]],[[".",".",".",".",".",".",".",".",".","|",".",".",".",".",".",".",".",".",".","|",".",".",".",".",".",".",".",".","_","|",".","_","_","_","_","_","_","_"],[".",".",".",".",0,".",".",".",".","|",".",".",".",".",0,".",".",".",".","|",".",".",".",".",0,".",".",".","_","|","_","_",0,"_",1,"_","_","_"],[".",".",0,".",".",2,"p",0,2,"|",".",".",2,".",".",2,"p",0,".","|",".",".",0,".",".",2,"p",0,"_","|",2,"_","_","_","_","_","_","_"],[".",0,".",0,".",".",".",".",".","|",".",0,".",0,".",".",".",".",2,"|",".",2,".",2,".",".",".",".","_","|",".",0,"_",0,"_","_","_","_"],[".",".",".",".",".",".",".",".",".","|",".",".",".",".",".",".",".",".",".","|",3,".",".",".",".",".",".",".","_","|",".","_","_","_",0,"_","_","_"],[3,".",".",".",".",".",".",".",".","|",2,".",".",".",".",".",".",".",".","|",".",".",".",".",".",".",".",".","_","|",2,"_",3,"_","_","_","_","_"]],[["_","_","_","_","_",".",".",".",".","|",".","_","_","_","_",".",".",".",".","|",".",".",".",".",".",".",".",".","_","|",".","_","_","_","_","_",0,"_"],[3,"_","_","_",0,".",".",".",".","|",".","_","_","_",0,".",".",".",".","|",".",".",".",".",0,".",".",".","_","|",".","_",0,"_",1,"_","_","_"],[".","_",0,"_","_",2,"p",0,2,"|",".","_",2,"_","_",2,"p",0,".","|",".",".",0,".",".",2,"p",0,"_","|",2,"_","_","_","_",2,"_",2],[".",0,"_",0,"_",".",".",".",".","|",".",0,"_",0,"_",".",".",".",2,"|",".",2,".",2,".",".",".",".","_","|",".",0,"_",0,"_","_","_","_"],[".","_","_","_","_",".",".",".",".","|",".","_","_","_","_",".",".",".",".","|",3,".",".",".",".",".",".",".","_","|",".","_","_","_",0,"_","_","_"],[3,"_","_","_","_",".",".",".",".","|",2,"_","_","_","_",".",".",".",".","|",".",".",".",".",".",".",".",".","_","|",2,"_",3,"_","_","_","_","_"]],[[".","_","_","_","_","_","_","_","|","_","_","_","_","_","_","_","_","|","_","_","_","_","_","_","_","_","|","_","_","_","_",0,"_","_","_"],[3,"_","_","_",0,"_","_","_","|","_","_","_","_",3,"_","_","_","|","_","_","_","_",1,"_","_","_","|","_","_",3,"_","_",3,"_",3],[".","_",0,"_","_",0,"_",0,"|","_","_",2,"_","_",2,"_",0,"|","_","_",0,"_","_",0,"_",0,"|","_",2,"_",2,"_","_",2,"_"],[".",0,"_",0,"_","_",0,"_","|","_",0,"_",0,"_","_",0,"_","|","_",2,"_",2,"_","_",2,"_","|",0,"_","_","_","_","_","_","_"],[".","_","_","_","_","_","_","_","|","_","_","_","_","_","_","_","_","|",3,"_","_","_","_","_","_","_","|","_","_","_","_","_","_","_","_"],[3,"_","_","_","_","_","_","_","|",2,"_","_","_","_","_","_","_","|","_","_","_","_","_","_","_","_","|","_","_","_","_","_","_","_","_"]],[[".","_","_","_","_","_","_","_","|","_","_","_","_","_","_","_","_","|","_","_","_","_","_","_","_","_","|","_","_","_","_",0,"_","_","_"],[".","_","_","_",0,"_","_","_","|","_","_","_","_",3,"_","_","_","|","_","_","_","_",1,"_","_","_","|","_","_",3,"_","_",3,"_","_"],[".","_",0,"_","_",0,"_",0,"|","_","_",2,"_","_",2,"_",0,"|","_","_",0,"_","_",0,"_",0,"|","_",2,"_",2,"_","_","_","_"],[".",0,"_",0,"_","_",0,"_","|","_",0,"_",0,"_","_",0,"_","|","_",2,"_",2,"_","_",2,"_","|",0,"_","_","_","_","_",0,2],[".","_","_","_","_","_","_","_","|","_","_","_","_","_","_","_","_","|",3,"_","_","_","_","_","_","_","|","_","_","_","_","_","_","_","_"],[3,"_","_","_","_","_","_","_","|",2,"_","_","_","_","_","_","_","|","_","_","_","_","_","_","_","_","|","_","_","_","_","_","_","_","_"]],[[".","_","_","_","_","_","_","_","|","_","_","_","_",0,"_","_","_","|","_","_","_","_","_","_","_","_","|","_","_","_","_","_","_","_","_"],[".","_","_","_",1,"_","_","_","|","_","_",3,"_","_",3,"_",3,"|","_","_","_",0,"_","_","_",0,"|","_","_","_","_",0,"_","_","_"],[".","_",0,"_","_",0,"_",0,"|","_",2,"_",2,"_","_",2,"_","|","_","_",0,"_","_","_",0,"_","|","_","_",0,"_","_",0,"_",0],[".",2,"_",2,"_","_",2,"_","|",0,"_","_","_","_","_","_","_","|","_",0,"_","_","_",0,"_","_","|","_",2,"_",2,"_","_",2,"_"],[3,"_","_","_","_","_","_","_","|","_","_","_","_","_","_","_","_","|","_","_","_","_","_","_","_","_","|","_","_","_","_","_","_","_","_"],[".","_","_","_","_","_","_","_","|","_","_","_","_","_","_","_","_","|",3,"_","_","_",2,"_","_","_","|",0,"_","_","_","_","_","_","_"]],[[".","_","_","_","_","_","_","_","_","_","_","_","_","_","_","_","_","|","_","_","_","_","_","_","_","_",0,"_","_","_","_","_","_","_","_"],[".","_","_","_","_","_","_","_",1,"_","_","_","_","_","_","_","_","|","_","_","_","_",3,"_","_","_","_","_",3,"_","_","_",3,"_","_"],[".","_","_","_",0,"_","_","_","_","_",0,"_","_","_",0,"_","_","|","_","_",2,"_","_","_",2,"_","_","_","_","_",2,"_","_","_","_"],[".","_",2,"_","_","_",2,"_","_","_","_","_",2,"_","_","_","_","|",0,"_","_","_","_","_","_","_","_","_","_","_","_","_","_","_","_"],[3,"_","_","_","_","_","_","_","_","_","_","_","_","_","_","_","_","|","_","_","_","_","_","_","_","_","_","_","_","_","_","_","_","_","_"],[".","_","_","_","_","_","_","_","_","_","_","_","_","_","_","_","_","|","_","_","_","_","_","_","_","_","_","_","_","_","_","_","_","_","_"]],[[".",".",".",".",".",".",".",".",".","|",".",".",".",".",".",".",".",".",".","|",".",".",".",".",".",".",".",".","_","|",".","_","_","_","_","_","_"],[".",".",".",".",0,".",".",".",".","|",".",".",".",".",0,".",".",".",".","|",".",".",".",".",0,".",".",".","_","|","_","_",0,"_",1,"_","_"],[".",".",0,".",".",2,"p",0,2,"|",".",".",2,".",".",2,"p",0,".","|",".",".",0,".",".",2,"p",0,"_","|",2,"_","_","_","_","_","_"],[".",0,".",0,".",".",".",".",".","|",".",0,".",0,".",".",".",".",2,"|",".",2,".",2,".",".",".",".","_","|",".",0,"_",0,"_","_","_"],[".",".",".",".",".",".",".",".",".","|",".",".",".",".",".",".",".",".",".","|",3,".",".",".",".",".",".",".","_","|",".","_","_","_",0,"_","_"],[3,".",".",".",".",".",".",".",".","|",2,".",".",".",".",".",".",".",".","|",".",".",".",".",".",".",".",".","_","|",2,"_",3,"_","_","_","_"]],[[".","_","_","_","_","_","_","_","_","_","_","_","_","_","_","_","|","_","_","_","_","_","_","_","_","_","_","_","_","_","_","_"],[".","_","_","_","_","_","_","_",0,"_","_","_","_","_","_","_","|","_","_","_","_","_","_","_","_",0,"_","_","_","_","_","_"],[".","_","_","_",0,"_","_","_","_","_",0,"_","_","_",0,"_","|","_","_","_","_",0,"_","_","_","_","_",0,"_","_","_",0],[".","_",0,"_","_","_",0,"_","_","_","_","_",0,"_","_","_","|","_","_",0,"_","_","_",0,"_","_","_","_","_",0,"_","_"],[".","_","_","_","_","_","_","_","_","_","_","_","_","_","_","_","|","_","_","_","_","_","_","_","_","_","_","_","_","_","_","_"],[3,"_","_","_","_","_","_","_","_","_","_","_","_","_","_","_","|",3,"_","_","_","_","_","_","_","_","_","_","_","_","_","_"]],[[".","_","_","_","_","_","_","_","|","_","_","_","_",0,"_","_","_","|","_","_","_","_","_","_","_","_","|","_","_","_","_","_","_","_","_"],[".","_","_","_",1,"_","_","_","|","_","_",3,"_","_",3,"_",3,"|","_","_","_",0,"_","_","_",0,"|","_","_","_","_",0,"_","_","_"],[".","_",0,"_","_",0,"_",0,"|","_",2,"_",2,"_","_",2,"_","|","_","_",0,"_","_","_",0,"_","|","_","_",0,"_","_",0,"_",0],[".",2,"_",2,"_","_",2,"_","|",0,"_","_","_","_","_","_","_","|","_",0,"_","_","_",0,"_","_","|","_",2,"_",2,"_","_",2,"_"],[3,"_","_","_","_","_","_","_","|","_","_","_","_","_","_","_","_","|","_","_","_","_","_","_","_","_","|","_","_","_","_","_","_","_","_"],[".","_","_","_","_","_","_","_","|","_","_","_","_","_","_","_","_","|",3,"_","_","_",2,"_","_","_","|",0,"_","_","_","_","_","_","_"]],[[".","_","_","_","_","_","_","_","|","_","_","_","_",0,"_","_","_","|","_","_","_","_","_","_","_","_","|","_"],[".","_","_","_",1,"_","_","_","|","_","_",3,"_","_",3,"_",3,"|","_","_","_","_",1,"_","_","_","|","_"],[".","_",0,"_","_",0,"_",0,"|","_",2,"_",2,"_","_",2,"_","|","_","_",0,"_","_",0,"_",0,"|","_"],[".",2,"_",2,"_","_",2,"_","|",0,"_","_","_","_","_","_","_","|","_",2,"_",2,"_","_",2,"_","|",0],[3,"_","_","_","_","_","_","_","|","_","_","_","_","_","_","_","_","|",3,"_","_","_","_","_","_","_","|","_"],[".","_","_","_","_","_","_","_","|","_","_","_","_","_","_","_","_","|","_","_","_","_","_","_","_","_","|","_"]],[[".",".",".",".",".",".",".",".",".","|",".",".",".",".",".",".",".",".",".","|",".",".",".",".",".",".",".",".","_","|","_","_","_","_","_","_",0,"_"],[".",".",".",".",0,".",".",".",".","|",".",".",".",".",0,".",".",".",".","|",".",".",".",".",0,".",".",".","_","|","_","_",0,"_",1,"_","_","_"],[".",".",0,".",".",2,"p",0,2,"|",".",".",2,".",".",2,"p",0,".","|",".",".",0,".",".",2,"p",0,"_","|",2,"_","_","_","_","_","_","_"],[".",0,".",0,".",".",".",".",".","|",".",0,".",0,".",".",".",".",2,"|",".",2,".",2,".",".",".",".","_","|","_",0,"_",0,"_",2,"_",2],[".",".",".",".",".",".",".",".",".","|",".",".",".",".",".",".",".",".",".","|",3,".",".",".",".",".",".",".","_","|","_","_","_","_",0,"_","_","_"],[3,".",".",".",".",".",".",".",".","|",2,".",".",".",".",".",".",".",".","|",".",".",".",".",".",".",".",".","_","|",2,"_",3,"_","_","_","_","_"]],[["_","_","_","_","_",".",".",".",".","|",".","_","_","_","_",".",".",".",".","|",".",".",".",".",".",".",".",".","_","|","_","_","_","_","_","_",0,"_"],[3,"_","_","_",0,".",".",".",".","|",".","_","_","_",0,".",".",".",".","|",".",".",".",".",0,".",".",".","_","|","_","_",0,"_",1,"_","_","_"],[".","_",0,"_","_",2,"p",0,2,"|",".","_",2,"_","_",2,"p",0,".","|",".",".",0,".",".",2,"p",0,"_","|",2,"_","_","_","_","_","_","_"],[".",0,"_",0,"_",".",".",".",".","|",".",0,"_",0,"_",".",".",".",2,"|",".",2,".",2,".",".",".",".","_","|","_",0,"_",0,"_",2,"_",2],[".","_","_","_","_",".",".",".",".","|",".","_","_","_","_",".",".",".",".","|",3,".",".",".",".",".",".",".","_","|","_","_","_","_",0,"_","_","_"],[3,"_","_","_","_",".",".",".",".","|",2,"_","_","_","_",".",".",".",".","|",".",".",".",".",".",".",".",".","_","|",2,"_",3,"_","_","_","_","_"]],[["_","_","_","_","_","_","_","_","|","_","_","_","_","_","_","_","_","|","_","_","_","_","_","_","_","_","|","_","_","_","_",0,"_","_","_"],["_","_","_",0,"_","_","_",0,"|","_","_","_",0,"_","_","_",3,"|","_","_","_","_",1,"_","_","_","|","_","_",3,"_","_",3,"_",3],["_","_",0,"_","_","_",0,"_","|","_","_",0,"_","_","_",0,"_","|","_","_",0,"_","_",0,"_",0,"|","_",2,"_",2,"_","_",2,"_"],["_",0,"_","_","_",0,"_","_","|","_",2,"_","_","_",4,"_","_","|","_",2,"_",2,"_","_",2,"_","|",0,"_","_","_","_","_","_","_"],["_","_","_","_","_","_","_","_","|","_","_","_","_",5,"_","_","_","|",3,"_","_","_","_","_","_","_","|","_","_","_","_","_","_","_","_"],[3,"_","_","_",2,"_","_","_","|",0,"_","_","_","_","_","_","_","|","_","_","_","_","_","_","_","_","|","_","_","_","_","_","_","_","_"]],[[".","_","_","_","_",".",".",".",".","|",".",".",".",".",".",".",".",".",".","|",".",".",".",".",".",".",".",".","_","|","_","_","_","_","_","_",0,"_"],[".","_","_","_",0,".",".",".",".","|",".",".",".",".",0,".",".",".",".","|",".",".",".",".",0,".",".",".","_","|","_","_",0,"_",1,"_","_","_"],[".","_",0,"_","_",2,"p",0,2,"|",".",".",2,".",".",2,"p",0,".","|",".",".",0,".",".",2,"p",0,"_","|",2,"_","_","_","_","_","_","_"],[".",0,"_",0,"_",".",".",".",".","|",".",0,".",0,".",".",".",".",2,"|",".",2,".",2,".",".",".",".","_","|","_",0,"_",0,"_",2,"_",2],[".","_","_","_","_",".",".",".",".","|",".",".",".",".",".",".",".",".",".","|",3,".",".",".",".",".",".",".","_","|","_","_","_","_",0,"_","_","_"],[3,"_","_","_","_",".",".",".",".","|",2,".",".",".",".",".",".",".",".","|",".",".",".",".",".",".",".",".","_","|",2,"_",3,"_","_","_","_","_"]],[["_","_","_","_","_",".",".",".",".","|",".","_","_","_","_",".",".","_","_","|","_","_","_","_","_","_",".",".",".","|","_","_","_","_","_","_",0,"_","|","_","_"],[3,"_","_","_",0,".",".",".",".","|",".","_","_","_",0,".",".","_","_","|","_","_","_","_",0,"_",".",".",".","|","_","_",0,"_",1,"_","_","_","|",3,"_"],[".","_",0,"_","_",2,"p",0,2,"|",".","_",2,"_","_",2,"p",0,"_","|","_","_",0,"_","_","_",2,"p",0,"|",2,"_","_","_","_","_","_","_","|",0,"_"],[".",0,"_",0,"_",".",".",".",".","|",".",0,"_",0,"_",".",".","_",2,"|","_",2,"_",2,"_","_",".",".",".","|","_",0,"_",0,"_",2,"_",2,"|",0,"_"],[".","_","_","_","_",".",".",".",".","|",".","_","_","_","_",".",".","_","_","|",3,"_","_","_","_","_",".",".",".","|","_","_","_","_",0,"_","_","_","|",2,"_"],[3,"_","_","_","_",".",".",".",".","|",2,"_","_","_","_",".",".","_","_","|","_","_","_","_","_","_",".",".",".","|",2,"_",3,"_","_","_","_","_","|",3,"_"]]],"numberofstrings":6,"notes":["E","B","G","D","A","E","B"],"capo":0,"stringnotes":["E4","B3","G3","D3","A2","E2"],"comments":["INTRO | EASY","INTRO","","VERSE:","","CHORUS","","BREACK 1 ","BREACK 2","BRIDGE","","POST GRIDGE","","OUTRO","",""],"timing":[["W","W","W","W","W","W","W","W",null,"W","W","W","W","W","W","W","W",null,"W","W","W","W","W","W","W","W",null,"W","W","W","W","W","W"],["W","W","W","W","W","W",null,"W","W",null,"W","W","W","W","W","W",null,"W","W",null,"W","W","W","W","W","W",null,"W","W",null,"W","W","W","W","W","W","W","W"],["W","W","W","W","W","W",null,"W","W",null,"W","W","W","W","W","W",null,"W","W",null,"W","W","W","W","W","W",null,"W","W",null,"W","W","W","W","W","W","W","W","W"],["W","W","W","W","W","W","W","W","W","W","W","W","W","W","W","W","W","W","W","W","W","W","W","W","W","W","W","W","W","W","W","W","W","W","W","W"],["W","W","W","W","W","W","W","W","W","W","W","W","W","W","W","W","W","W","W","W","W","W","W","W","W","W","W","W","W","W","W","W","W","W","W","W"],["W","W","W","W","W","W","W","W","W","W","W","W","W","W","W","W","W","W","W","W","W","W","W","W","W","W","W","W","W","W","W","W","W","W","W","W"],["W","W","W","W","W","W","W","W","W","W","W","W","W","W","W","W","W",null,"W","W","W","W","W","W","W","W","W","W","W","W","W","W","W","W","W"],[null,null,null,null,null,null,null,null,null,null,null,null,null,null,null,null,null,null,null,null,null,null,null,null,null,null,null,null,null,null,null,null,null,null,null,null,"W"],["W","W","W","W","W","W","W","W","W","W","W","W","W","W","W","W",null,"W","W","W","W","W","W","W","W","W","W","W","W","W","W","W","W"],["W","W","W","W","W","W","W","W","W","W","W","W","W","W","W","W","W","W","W","W","W","W","W","W","W","W","W","W","W","W","W","W","W","W","W","W"],["W","W","W","W","W","W","W","W","W","W","W","W","W","W","W","W","W","W","W","W","W","W","W","W","W","W","W","W","W"],[null,null,null,null,null,null,null,null,null,null,null,null,null,null,null,null,null,null,null,null,null,null,null,null,null,"W",null,"W","W",null,"W","W","W","W","W","W","W","W","W"],[null,null,null,null,null,null,null,null,null,null,null,null,null,null,null,null,null,null,null,null,null,null,null,null,null,"W",null,"W","W",null,"W","W","W","W","W","W","W","W","W"],[null,null,null,null,null,null,null,null,null,"W","W","W","W","W","W","W","W","W","W","W","W","W","W","W","W","W","W","W","W","W","W","W","W","W","W","W"],["W","W","W","W","W","W",null,"W","W",null,"W","W","W","W","W","W",null,"W","W",null,"W","W","W","W","W","W",null,"W","W",null,"W","W","W","W","W","W","W","W","W"],[null,null,null,null,null,null,null,null,null,null,null,null,null,null,null,null,null,"W","W","W","W","W","W","W","W","W","W",null,"W",null,"W","W","W","W","W","W","W","W","W","W","W"]],"timingvisible":false,"tabcounter":41,"stave":15,"totalstaves":16,"instrument":"6guitar","selectedtuning":"6_standard","version":"13"}

Member for

1 month 1 week
Submitted by zoteb on Thu, 2022-05-19 00:29