Sound will begin in 5 seconds

Just feel better - Santana

01234567891011121314151617181920212223
E
B
G
D
A
E
B
0 1 2 3 4 5 6 7 8 9 10 11 12 13 14 15 16 17 18 19 20 21 22 23
Song Science #1: How Pros Use 6 Chords to Write Hit Songs
(/) Slide Up  (\) Slide Down  (h) Hammer On  (p) Pull Off  (b) Bend (r) Release (v) Vibrato

Stave 1:

E|--11v--------10h11--10-----------------------
B|------------------------11------11/13--11v--\
G|----------------------------12---------------
D|---------------------------------------------
A|---------------------------------------------
E|---------------------------------------------

Stave 2:

E|----------------------------------------------
B|----------------------------------------------
G|-----8--10--12--10--12--10--8--8--8-----8h10--
D|--8-------------------------------------------
A|----------------------------------------------
E|----------------------------------------------

Stave 3:

E|---------11--11--11---------11--11---------11--11------11------11--13b13b
B|--11/13-----------------13-------------13----------13------13------------
G|-------------------------------------------------------------------------
D|-------------------------------------------------------------------------
A|-------------------------------------------------------------------------
E|-------------------------------------------------------------------------

Stave 4:

E|----------------------------|---------------------------|-----------------------------
B|----------------------------|---------------------------|-----11b11--8----------------
G|---------------8h10--8v-----|--10b10--10--10--8--8v-----|---------------10b10--8--10--
D|--------8--10---------------|---------------------------|-----------------------------
A|--8h10----------------------|---------------------------|-----------------------------
E|----------------------------|---------------------------|-----------------------------

Stave 5:

E|----------------------------------------|------------11------11v--10b10--10b10----------
B|----------------------------------------|-----10/13------13---------------------13--11--
G|--------8--10--10/12--10--8--10--8--8v--|-----------------------------------------------
D|--8h10----------------------------------|-----------------------------------------------
A|----------------------------------------|-----------------------------------------------
E|----------------------------------------|-----------------------------------------------

Stave 6:

E|---------------------------------------------------|----------------------------
B|---------------------------8-----------------------|--8h9--8--8-----------------
G|-----8--10/12v--10--8--10-----8h10--10--8------8v--|-------------8--------------
D|--8----------------------------------------10------|----------------------------
A|---------------------------------------------------|----------------11--10------
E|---------------------------------------------------|------------------------11--

Stave 7:

E|--
B|--
G|--
D|--
A|--
E|--

http://www.guitartabcreator.com
Guitar Tab Creator is intended to store guitar tab created through the tool. It currently does not support in-line text editing. Any text you place in here will be lost. If you need to comment on your tab, please use the "Tab Notes" section located below.