Sound will begin in 5 seconds

Hard to Pretend

01234567891011121314151617181920212223
E
B
G
D
A
E
B
0 1 2 3 4 5 6 7 8 9 10 11 12 13 14 15 16 17 18 19 20 21 22 23
Song Science #1: How Pros Use 6 Chords to Write Hit Songs
(/) Slide Up  (\) Slide Down  (h) Hammer On  (p) Pull Off  (b) Bend (r) Release (v) Vibrato

Stave 1:

E|--5----------------
B|-----------7-------
G|--------------7----
D|-----------------6\
A|-----5-------------
E|--------5----------

Stave 2:

E|--12---------------------
B|--------------14---------
G|------------------14-----
D|----------------------13/
A|------12-----------------
E|----------12-------------

Stave 3:

E|--7----------------
B|-----------9-------
G|--------------9----
D|-----------------8\
A|-----7-------------
E|--------7----------

Stave 4:

E|--12---------------------
B|--------------14---------
G|------------------14-----
D|----------------------13/
A|------12-----------------
E|----------12-------------

Stave 5:

E|--5-----------------
B|-----------7--------
G|--------------7-----
D|-----------------6--
A|-----5--------------
E|--------5-----------

Stave 6:

E|--12----------------------
B|--------------14----------
G|------------------14------
D|----------------------13--
A|------12------------------
E|----------12--------------

Stave 7:

E|--4-----------------
B|--------------------
G|-----------6--------
D|--------------6-----
A|-----4-----------5--
E|--------4-----------

Stave 8:

E|--4-----------------
B|-----------6--------
G|--------------6-----
D|-----------------5--
A|-----4--------------
E|--------4-----------

Stave 9:

E|--5-----------------
B|--------------------
G|-----------7--------
D|--------------7-----
A|-----5-----------6--
E|--------5-----------

Stave 10:

E|--5-----------------
B|-----------7--------
G|--------------7-----
D|-----------------6--
A|-----5--------------
E|--------5-----------

Stave 11:

E|--12----------------------
B|--------------14----------
G|------------------14------
D|----------------------13--
A|------12------------------
E|----------12--------------

Stave 12:

E|--5-----------------
B|-----------7--------
G|--------------7-----
D|-----------------6--
A|-----5--------------
E|--------5-----------

Stave 13:

E|--4-----------------
B|--------------6-----
G|-----------6--------
D|-----------------5--
A|-----4--------------
E|--------4-----------

http://www.guitartabcreator.com
Guitar Tab Creator is intended to store guitar tab created through the tool. It currently does not support in-line text editing. Any text you place in here will be lost. If you need to comment on your tab, please use the "Tab Notes" section located below.