Sound will begin in 5 seconds

All Night Long Guitar Solo Joe Walsh

Chords
01234567891011121314151617181920212223
E
B
G
D
A
E
B
0 1 2 3 4 5 6 7 8 9 10 11 12 13 14 15 16 17 18 19 20 21 22 23
Song Science #1: How Pros Use 6 Chords to Write Hit Songs
(/) Slide Up  (\) Slide Down  (h) Hammer On  (p) Pull Off  (b) Bend (r) Release (v) Vibrato

Stave 1:

E|-9-7-----9-7-----9-7---------------2--------------9-7-----------------------------
B|-----7b8-----7b8-----7b8r7-------2---5--------7b8-----7b8r7-------7b8-7-5---5-----
G|---------------------------9-4b6-------4b6-2v---------------9-6-4---------6---6-4-
D|----------------------------------------------------------------------------------
A|----------------------------------------------------------------------------------
E|----------------------------------------------------------------------------------

Stave 2:

E|--------------------------------------------5-----5-5---------------------------7---7---
B|-----9\0-----9----------9---7---------------5-----5-5-8-5---5---5-----9---9-----7---7---
G|-----9-0-----9----------9---7---------------6-----6-6-----6---6-------9---9-----8---8---
D|--------------------------------------------7-----7-7-----------------9---9-----9---9---
A|-0/7-----0/7---7-9-9/11---9---6b7-----------7-----7-7-------------7/9---7-------9---9---
E|----------------------------------------3/5-5-3/5-5-5-----------------------5/7-7-7-7-0-

Stave 3:

E|-12-10-------12-10-------12-10----------------5---7---8---9-
B|-------10b11-------10b11-------10b11-8--------5---5---5---5-
G|------------------------------------------4/6---6---6---6---
D|------------------------------------------------------------
A|------------------------------------------------------------
E|------------------------------------------------------------

Stave 4:

E|-----7-7---7-------------12-15-12-14-12----12-
B|-----8-8---8----------12----------------14----
G|-7/9-----9------14b16-------------------------
D|----------------------------------------------
A|----------------------------------------------
E|----------------------------------------------

http://www.guitartabcreator.com
Guitar Tab Creator is intended to store guitar tab created through the tool. It currently does not support in-line text editing. Any text you place in here will be lost. If you need to comment on your tab, please use the "Tab Notes" section located below.