Walkin Blues Solo 1

Chords

01234567891011121314151617181920212223
E
B
G
D
A
E
B
0 1 2 3 4 5 6 7 8 9 10 11 12 13 14 15 16 17 18 19 20 21 22 23
(/) Slide Up  (\) Slide Down  (h) Hammer On  (p) Pull Off  (b) Bend (r) Release (v) Vibrato

Stave 1:

E|-------------------------------------------5-----5----------------------------
B|--10--10--10--5--8-----5----------------------8-----5--8----------------------
G|--------------------7-----5--7-----7p5--------------------7--5-----7p5--------
D|--------------------------------7-------7-----------------------7-------7--7--
A|------------------------------------------------------------------------------
E|------------------------------------------------------------------------------

Stave 2:

E|---------------------------------8--10--10b10------12---------------------------------
B|---------------------------8/10----------------12------12--12--10---------------------
G|--7p5-----7p5-----7p5----------------------------------------------5p0--7p0--5p0--5v--
D|-------7-------7-------7v-------------------------------------------------------------
A|--------------------------------------------------------------------------------------
E|--------------------------------------------------------------------------------------

							http://www.guitartabcreator.com
Instruments
{"strings":[[[".",".",".",".",".",".",".",".",".",".",".",".",".",".",5,".",5,".",".",".",".",".",".",".",".",".","."],[10,10,10,5,8,".",5,".",".",".",".",".",".",".",".",8,".",5,8,".",".",".",".",".",".",".","."],[".",".",".",".",".",7,".",5,7,".",7,"p",5,".",".",".",".",".",".",7,5,".",7,"p",5,".","."],[".",".",".",".",".",".",".",".",".",7,".",".",".",7,".",".",".",".",".",".",".",7,".",".",".",7,7],[".",".",".",".",".",".",".",".",".",".",".",".",".",".",".",".",".",".",".",".",".",".",".",".",".",".","."],[".",".",".",".",".",".",".",".",".",".",".",".",".",".",".",".",".",".",".",".",".",".",".",".",".",".","."]],[[".",".",".",".",".",".",".",".",".",".",".",".",".",".",".",".",8,10,10,"b",10,".",12,".",".",".",".",".",".",".",".",".",".",".",".",".","."],[".",".",".",".",".",".",".",".",".",".",".",".",".",8,"/",10,".",".",".",".",".",12,".",12,12,10,".",".",".",".",".",".",".",".",".",".","."],[7,"p",5,".",7,"p",5,".",7,"p",5,".",".",".",".",".",".",".",".",".",".",".",".",".",".",".",5,"p",0,7,"p",0,5,"p",0,5,"v"],[".",".",".",7,".",".",".",7,".",".",".",7,"v",".",".",".",".",".",".",".",".",".",".",".",".",".",".",".",".",".",".",".",".",".",".",".","."],[".",".",".",".",".",".",".",".",".",".",".",".",".",".",".",".",".",".",".",".",".",".",".",".",".",".",".",".",".",".",".",".",".",".",".",".","."],[".",".",".",".",".",".",".",".",".",".",".",".",".",".",".",".",".",".",".",".",".",".",".",".",".",".",".",".",".",".",".",".",".",".",".",".","."]]],"numberofstrings":6,"notes":["E","B","G","D","A","E","B"],"capo":0,"stringnotes":["E4","B3","G3","D3","A2","E2"],"comments":["Stave 1:","Stave 2:"],"timing":[[null,null,null,null,null,null,null,null,null,null,"W",null,"W","W","W","W","W","W","W","W","W","W","W",null,"W","W","W"],["W",null,"W","W","W",null,"W","W","W",null,"W","W",null,"W",null,"W","W","W","W",null,"W","W","W","W","W","W","W",null,"W","W",null,"W","W",null,"W","W"]],"timingvisible":false,"tabcounter":37,"stave":1,"totalstaves":2,"instrument":"6guitar","selectedtuning":"6_standard","version":"13"}

Member for

1 month 1 week
Submitted by zman on Mon, 2020-10-26 12:24