Sound will begin in 5 seconds

Usura Joel Jetlag

Chords
01234567891011121314151617181920212223
E
B
G
D
A
E
B
0 1 2 3 4 5 6 7 8 9 10 11 12 13 14 15 16 17 18 19 20 21 22 23
Song Science #1: How Pros Use 6 Chords to Write Hit Songs
(/) Slide Up  (\) Slide Down  (h) Hammer On  (p) Pull Off  (b) Bend (r) Release (v) Vibrato

Stave 1:

D|----------------
A|----------------
F|--8-------------
C|--8--8--6--4----
G|--6--8--6--4/6--
D|-----6--4--2----

Stave 2:

D|--------------------
A|--------------------
F|--------------------
C|--4-----------4--7--
G|--2-----6-----2--5--
D|--------4-----------

Stave 3:

D|--------------------------
A|--------------------------
F|-----------------------7--
C|--8-----4-----------4-----
G|--6-----2-----6-----2--5--
D|--------------4-----------

Stave 4:

D|------14------13------14------13--
A|----------------------------------
F|--11------11------11------11------
C|----------------------------------
G|----------------------------------
D|----------------------------------

Stave 5:

D|------14------13------14------13--
A|--11------11------11------11------
F|----------------------------------
C|----------------------------------
G|----------------------------------
D|----------------------------------

Stave 6:

D|-----------
A|-----------
F|-----------
C|--------4--
G|--6-----4--
D|--4-----2--

http://www.guitartabcreator.com
Guitar Tab Creator is intended to store guitar tab created through the tool. It currently does not support in-line text editing. Any text you place in here will be lost. If you need to comment on your tab, please use the "Tab Notes" section located below.