Sound will begin in 5 seconds

Usura JETLAG tabs

Chords
01234567891011121314151617181920212223
E
B
G
D
A
E
B
0 1 2 3 4 5 6 7 8 9 10 11 12 13 14 15 16 17 18 19 20 21 22 23
Song Science #1: How Pros Use 6 Chords to Write Hit Songs
(/) Slide Up  (\) Slide Down  (h) Hammer On  (p) Pull Off  (b) Bend (r) Release (v) Vibrato

Stave 1:

D|----------------0--------------------
A|----------------0-----------------0--
F|----------0-----------------------0--
C|-------0--------------------0--------
G|--0h2--------------------4-----------
D|-------------0--------5--------5-----

Stave 2:

D|--0--0--0--0--0--
A|--0--0--0--0--0--
F|--0--0--0--0--0--
C|--0--0--2--0--0--
G|--2--4--2--4--1--
D|-----5--2--5-----

Stave 3:

D|--------7-------------12----------15----------14--
A|-----7------------12----------12----------12------
F|--7-----------12----------12----------12----------
C|--------------------------------------------------
G|--------------------------------------------------
D|--------------------------------------------------

Stave 4:

D|--7-----------12----------11----------
A|-----7------------12----------11------
F|--------7-------------12----------12--
C|--------------------------------------
G|--------------------------------------
D|--------------------------------------

Stave 5:

D|--0--0--------0--0--
A|--0--0--------0--0--
F|--0--0--------2--0--
C|--0--0--------0--0--
G|--2--4--------2--0--
D|-----5--------2--0--

Stave 6:

D|--0--------0--
A|--0--------0--
F|--0--------0--
C|--0--------0--
G|--4--------1--
D|--5-----------

Stave 7:

D|--0-----0--
A|--0-----0--
F|--2-----0--
C|--0-----0--
G|--2-----0--
D|--2-----0--

Stave 8:

D|----------------------------------------
A|---------9--0---------------9--0--------
F|---------------9--0---------------9--0--
C|---------------------9--11--------------
G|--9--11---------------------------------
D|----------------------------------------

Stave 9:

D|---------------
A|---------9--9--
F|---------------
C|---------------
G|--9--11--------
D|---------------

Stave 10:

D|--0--0--0--
A|--0--0--0--
F|--0--0--0--
C|--0-----0--
G|--4--6--3--
D|-----7-----

Stave 11:

D|--14------14------
A|------14------14--
F|--14------14------
C|------------------
G|------------------
D|------------------

Stave 12:

D|--
A|--
F|--
C|--
G|--
D|--

http://www.guitartabcreator.com
Guitar Tab Creator is intended to store guitar tab created through the tool. It currently does not support in-line text editing. Any text you place in here will be lost. If you need to comment on your tab, please use the "Tab Notes" section located below.