Sound will begin in 5 seconds

River Tabs

Chords
01234567891011121314151617181920212223
E
B
G
D
A
E
B
0 1 2 3 4 5 6 7 8 9 10 11 12 13 14 15 16 17 18 19 20 21 22 23
Song Science #1: How Pros Use 6 Chords to Write Hit Songs
(/) Slide Up  (\) Slide Down  (h) Hammer On  (p) Pull Off  (b) Bend (r) Release (v) Vibrato

Capo Fret 3

Stave 1:

Db|------------------------------------------
A |------------------------------------------
Gb|-----10-----15-----13-----8-----6-----11--
D |--0------0------0------0-----0-----0------
A |------------------------------------------
D |------------------------------------------

Stave 2:

Db|--0--0--0--------------
A |--0--0--0--------------
Gb|--0--0--0--------------
D |--7--0--7--------------
A |--7--5--7--7--8--5--0--
D |--7-----7--------------

Stave 3:

Db|-------------------
A |-------------------
Gb|-------------------
D |-------------------
A |--7--8--12--10--8--
D |-------------------

Stave 4:

Db|-------------------------------------------------
A |-------------------------------------------------
Gb|------------8--10--8--6/10--8--10b11b10--8\6-----
D |--7--9--10------------------------------------5--
A |-------------------------------------------------
D |-------------------------------------------------

Stave 5:

Db|--------------------------------------------------
A |-------------------------------------------7------
Gb|------------8--10--8--13--11--10-----8--6--9--10--
D |--7--9--10----------------------------------------
A |--------------------------------------------------
D |--------------------------------------------------

http://www.guitartabcreator.com
Guitar Tab Creator is intended to store guitar tab created through the tool. It currently does not support in-line text editing. Any text you place in here will be lost. If you need to comment on your tab, please use the "Tab Notes" section located below.