Sound will begin in 5 seconds

Limbo Joel Jetlag

Chords
01234567891011121314151617181920212223
E
B
G
D
A
E
B
0 1 2 3 4 5 6 7 8 9 10 11 12 13 14 15 16 17 18 19 20 21 22 23
Song Science #1: How Pros Use 6 Chords to Write Hit Songs
(/) Slide Up  (\) Slide Down  (h) Hammer On  (p) Pull Off  (b) Bend (r) Release (v) Vibrato

Stave 1:

D|--6-----------------------
A|--0-----------------------
F|--4-----------------------
C|--------------------------
G|--------------------------
D|--------------------------

Stave 2:

D|--------12--11-------------------------
A|----------------12--9------------------
F|-----6-----------------11--9-----6-----
C|--2--6------------------------2--6--4--
G|--2--4------------------------2--4--4--
D|--0---------------------------0-----2--

Stave 3:

D|---------------
A|---------------
F|--6--8--11--9--
C|---------------
G|--4--6--9---7--
D|---------------

Stave 4:

D|-----
A|-----
F|-----
C|--2--
G|--2--
D|--0--

Stave 5:

D|--11--------9------14--11--------9-----------------------
A|---------------12-------------------12--11--------9------
F|-----------------------------------------------------11--
C|---------------------------------------------------------
G|---------------------------------------------------------
D|---------------------------------------------------------

Stave 6:

D|-----------------------------
A|-----------------------------
F|--4--6-----------------------
C|--4-----2--------------------
G|--2--4--2--------2--4--6-----
D|--------0-----------------0--

Stave 7:

D|--7-----
A|-----9--
F|--------
C|--------
G|--------
D|--------

Stave 8:

D|--------
A|--------
F|--------
C|--4--6--
G|--2--4--
D|--------

Stave 9:

D|-----------------
A|-----------------
F|--8--11--13--15--
C|-----------------
G|--6--9---11--13--
D|-----------------

Stave 10:

D|-----6------------------
A|--7---------------------
F|------------------------
C|---------------------2--
G|--------4--6--9--11--2--
D|--------2--4--7--9---0--

Stave 11:

D|-----------------------------
A|----------------------11--9--
F|--11--11--11-----------------
C|--------------11--13---------
G|-----------------------------
D|-----------------------------

http://www.guitartabcreator.com
Guitar Tab Creator is intended to store guitar tab created through the tool. It currently does not support in-line text editing. Any text you place in here will be lost. If you need to comment on your tab, please use the "Tab Notes" section located below.