Sound will begin in 5 seconds

Lake Effect Tabs

Chords
01234567891011121314151617181920212223
E
B
G
D
A
E
B
0 1 2 3 4 5 6 7 8 9 10 11 12 13 14 15 16 17 18 19 20 21 22 23
Song Science #1: How Pros Use 6 Chords to Write Hit Songs
(/) Slide Up  (\) Slide Down  (h) Hammer On  (p) Pull Off  (b) Bend (r) Release (v) Vibrato

Stave 1:

D|-----------------------------------------
A|--------------7-----7-----3-----3--8--9--
F|--------------7-----7-----3-----3--8--9--
C|--------------5-----5-----2-----2--7--8--
G|--5--5--6--7-----------3-----------------
D|-----------------7-----------3-----8--9--

Stave 2:

D|-----------------------------
A|-----------------------------
F|-----0--2--2b3b2--0-----3b4--
C|--2------------------2-------
G|-----------------------------
D|-----------------------------

Stave 3:

D|--------------------------------------
A|-----------7-----------7-----------7--
F|-----4-----------4-----------4--------
C|--5-----5-----5-----5-----5-----5-----
G|--------------------------------------
D|--------------------------------------

Stave 4:

D|-----------------------------------------
A|-----------10-----------10-----------10--
F|-----7------------7------------7---------
C|--9-----9------9-----9------9-----9------
G|-----------------------------------------
D|-----------------------------------------

Stave 5:

D|--------------------------------------
A|-----------7-----------7-----------7--
F|-----4-----------4-----------4--------
C|--5-----5-----5-----5-----5-----5-----
G|--------------------------------------
D|--------------------------------------

Stave 6:

D|--------------------------------------------------
A|--------------14--------------14--------------14--
F|------11--------------11--------------11----------
C|--12------12------12------12------12------12------
G|--------------------------------------------------
D|--------------------------------------------------

Stave 7:

D|-------------
A|--14-----15--
F|--11-----11--
C|--12-----12--
G|-------------
D|-------------

Stave 8:

D|---------13--10--12-----10--12--10--8--10--8--7--
A|--9--10------------------------------------------
F|-------------------------------------------------
C|-------------------------------------------------
G|-------------------------------------------------
D|-------------------------------------------------

Stave 9:

D|---------13--10--12-----10--12--8--10--8--7--
A|--9--10--------------------------------------
F|---------------------------------------------
C|---------------------------------------------
G|---------------------------------------------
D|---------------------------------------------

Stave 10:

D|--7--8--10--12-----14--
A|--5--7--8---10-----12--
F|--5--7--8---10-----12--
C|--5--7--8---10-----12--
G|-----------------------
D|-----------------------

Stave 11:

D|--0-----0-----0--0--0--0-----0--
A|--0-----0--0--0--0--0--0--0--0--
F|--0-----0--0--0--0--0--0--0--0--
C|--5-----2--0--4--5--7--2--0--4--
G|--7-----3--2--5--7--9--3--2--5--
D|-----------3--------------3-----

Stave 12:

D|--0--0--0-----0--0--0-----
A|--0--0--0-----0--0--0-----
F|--0--0--0-----0--0--0-----
C|--2--4--2-----2--4--5-----
G|--3--5--2-----3--5--6-----
D|--------0-----------------

Stave 13:

D|--12--12--12b13--12--12-----12--10------10--------------------------------
A|------------------------------------13------13--12--13--12h13p12--10--12--
F|--------------------------------------------------------------------------
C|--------------------------------------------------------------------------
G|--------------------------------------------------------------------------
D|--------------------------------------------------------------------------

Stave 14:

D|------------------------------------------------
A|--12--10--8--10--12--10-----8h10h12--10--8--10--
F|------------------------------------------------
C|------------------------------------------------
G|------------------------------------------------
D|------------------------------------------------

Stave 15:

D|---------------------------------------
A|--12b13b12--10------10--12-----12--12--
F|----------------12---------------------
C|---------------------------------------
G|---------------------------------------
D|---------------------------------------

Stave 16:

D|-------------------------------------------
A|--12b13b12--10------10---------------------
F|----------------12------12-----11--12--11--
C|-------------------------------------------
G|-------------------------------------------
D|-------------------------------------------

Stave 17:

D|----------------------------------------------
A|-------------10-----8--10--12-----12--11--10--
F|--9--11--12-----------------------------------
C|----------------------------------------------
G|----------------------------------------------
D|----------------------------------------------

Stave 18:

D|---------------------------
A|--10--8--10--12--12b13b12--
F|---------------------------
C|---------------------------
G|---------------------------
D|---------------------------

Stave 19:

D|---------------------------------------------------
A|-----------------12-----15--13h14--12--------------
F|------12--13h14------------------------14--11--16--
C|--14-----------------------------------------------
G|---------------------------------------------------
D|---------------------------------------------------

Stave 20:

D|-----------------------------------13h14--12--
A|-----------------12-----11/12--15-------------
F|------12--13h14-------------------------------
C|--14------------------------------------------
G|----------------------------------------------
D|----------------------------------------------

Stave 21:

D|--------------------------
A|--7-----------------7-----
F|--7-----------------7-----
C|--5-----------------5-----
G|--7-----7--7--7-----7-----
D|--------0--0--0-----------

Stave 22:

D|--0--0--0-----|-----
A|--0--0--0-----|--7--
F|--0--0--0-----|--7--
C|--2--4--2-----|--5--
G|--3--5--2-----|--7--
D|--------0-----|-----

Stave 23:

D|-----------------------------------------
A|-----------------------------------------
F|-----------------------------------------
C|-----5-----9--7--5--------5-----9--7-----
G|--7-----7--------------7-----7-----------
D|-----------------------------------------

Stave 24:

D|------------------------------------------
A|------------------------------------------
F|------------------------------------------
C|-----5-----9--7--5-----7p5----------------
G|--7-----7-------------------7p5-----------
D|---------------------------------7p5\3p0--

Stave 25:

D|--12-----12-----12--12--
A|--12-----12-----12--12--
F|--12-----12-----12--12--
C|--12--------------------
G|------------------------
D|------------------------

Stave 26:

D|----------------------------------------
A|----------------------------------------
F|-------10--7h9-----7--9--7--5--7--5--4--
C|--6/7-----------------------------------
G|----------------------------------------
D|----------------------------------------

Stave 27:

D|-------------------------------------
A|-------------------------------------
F|-------10--7h9-----7--9--5--7--5--4--
C|--6/7--------------------------------
G|-------------------------------------
D|-------------------------------------

Stave 28:

D|-----------
A|--7-----7--
F|--7-----7--
C|--5-----5--
G|--7-----7--
D|-----------

Stave 29:

D|--12--10--7--5--12--15--14--10--12--
A|------------------------------------
F|------------------------------------
C|------------------------------------
G|------------------------------------
D|------------------------------------

Stave 30:

D|--12--10--7--5--12--15--14--
A|----------------------------
F|----------------------------
C|----------------------------
G|----------------------------
D|----------------------------

http://www.guitartabcreator.com
Guitar Tab Creator is intended to store guitar tab created through the tool. It currently does not support in-line text editing. Any text you place in here will be lost. If you need to comment on your tab, please use the "Tab Notes" section located below.