Sound will begin in 5 seconds

Cerberus Limbo Joel

Chords
01234567891011121314151617181920212223
E
B
G
D
A
E
B
0 1 2 3 4 5 6 7 8 9 10 11 12 13 14 15 16 17 18 19 20 21 22 23
Song Science #1: How Pros Use 6 Chords to Write Hit Songs
(/) Slide Up  (\) Slide Down  (h) Hammer On  (p) Pull Off  (b) Bend (r) Release (v) Vibrato

Stave 1:

D|-----------------------------
A|-----------------------5-----
F|--------7-----------7--7-----
C|--3--5--7--7--3--2--7--------
G|--3--5--5--7--3--2--5--------
D|--1--3-----5--1--0-----------

Stave 2:

D|-----7--7--10--7-----7-----------------
A|-----5---------------5--5--8--5--------
F|-----5---------------5-----------7--5--
C|-----5---------------5-----------------
G|--0---------------0--------------------
D|---------------------------------------

Stave 3:

D|--------------------------
A|-----5-----------------5--
F|-----0-----------------0--
C|-----3-----------------3--
G|--5--5--------------5--5--
D|--------------------------

Stave 4:

D|--0--
A|--0--
F|--1--
C|--0--
G|--2--
D|--0--

Stave 5:

D|--0--0--0--0---
A|--0--0--0--0---
F|--5--2--7--9---
C|--7--3--9--10--
G|--0--0--0--0---
D|---------------

Stave 6:

D|--
A|--
F|--
C|--
G|--
D|--

http://www.guitartabcreator.com
Guitar Tab Creator is intended to store guitar tab created through the tool. It currently does not support in-line text editing. Any text you place in here will be lost. If you need to comment on your tab, please use the "Tab Notes" section located below.