why do you only call me when you´re high (artic monkeys)

01234567891011121314151617181920212223
E
B
G
D
A
E
B
0 1 2 3 4 5 6 7 8 9 10 11 12 13 14 15 16 17 18 19 20 21 22 23
(/) Slide Up  (\) Slide Down  (h) Hammer On  (p) Pull Off  (b) Bend (r) Release (v) Vibrato

Stave 1:

E|--------------------------------------|--------------------------------------
B|--------2--3-----3-----0-----2--0-----|--------2--3-----3-----0-----2--0-----
G|--------------------------------------|--------------------------------------
D|--4--------------------------------2--|--4--------------------------------2--
A|--------------------------------------|--------------------------------------
E|--------------------------------------|--------------------------------------

Stave 2:

E|-----------------------|-----------------------|-----------------|-----------------------
B|-----------0-----0-----|--0--0-----0--2-----2--|-----0-----0-----|-----0--------0--2-----
G|--------2-----2-----2--|--------2--------------|--2-----2-----2--|--2--------2--------2--
D|--4--------------------|-----------------------|-----------------|-----------------------
A|-----------------------|-----------------------|-----------------|-----------------------
E|-----------------------|-----------------------|-----------------|-----------------------

Stave 3:

E|-----2--0--------------------------------------------|--------2--0--2-----------------|-----------------------------------
B|-----------2--0--2--0--------0--2-----------2--2-----|-----------------2--0--2--0-----|-----0--2-----------------0--2-----
G|--2--------------------2--------------2-----------2--|--2--------------------------2--|--------------------2-----------2--
D|--------------------------4--------------4-----------|--------------------------------|--4--------------4-----4-----------
A|-----------------------------------------------------|--------------------------------|-----------------------------------
E|-----------------------------------------------------|--------------------------------|-----------------------------------

Stave 4:

E|--------0--------|--------------------------------|-----------0--------|-----------------------------
B|-----3-----3--2--|--0-----------2--0--------------|--0--2--3-----3--2--|--0-----0--2--0--------------
G|--2--------------|-----2-----2--------2-----------|--------------------|-----2-----------2-----------
D|-----------------|-----------------------4--2--4--|--------------------|--------------------4--2--4--
A|-----------------|--------------------------------|--------------------|-----------------------------
E|-----------------|--------------------------------|--------------------|-----------------------------

Stave 5:

E|--2--0--2--2--------------------------|-----------------0-----------
B|--------------2--0--------0-----------|--------0--2--3-----3--2--0--
G|--------------------2-----------------|-----2-----------------------
D|-----------------------4-----------4--|--4--------------------------
A|--------------------------------------|-----------------------------
E|--------------------------------------|-----------------------------

Stave 6:

E|--------------------------|-----------------------|-----------------|-----2--0--2-----------------------------|--------------------
B|-----------0-----0--------|--0--0-----0--2-----2--|-----0-----0-----|--------------2--0--2--0-----------0--2--|-----------0--2-----
G|--------------2--------2--|--------2--------------|--2-----2-----2--|--2-----------------------2--------------|-----2-----------2--
D|--------------------------|-----------------------|-----------------|--------------------------------4--------|--4-----4-----------
A|--------------------------|-----------------------|-----------------|-----------------------------------------|--------------------
E|--------------------------|-----------------------|-----------------|-----------------------------------------|--------------------

Stave 7:

E|-----2--0--2-----------------|-----------------------------------|--------0-----------|--------------------------------------------0--------
B|--------------2--0--2--0-----|-----0--2-----------------0--2-----|-----3-----3--2-----|--0-----------2--0-----------------0--2--3-----3--2--
G|--2-----------------------2--|--------------------2-----------2--|--2-----------------|-----2-----2--------2--------------------------------
D|-----------------------------|--4--------------4-----4-----------|--------------------|-----------------------4--2--4-----------------------
A|-----------------------------|-----------------------------------|--------------------|-----------------------------------------------------
E|-----------------------------|-----------------------------------|--------------------|-----------------------------------------------------

Stave 8:

E|-----------------------------|--2--0--2--2-----------------------------------------------------------------
B|--0-----0--2--0--------------|--------------2--0--------0--------------0--2--3--2--0--------2--0--------0--
G|-----2-----------2-----------|--------------------2-----------------2-----------------2--2-----------------
D|--------------------4--2--4--|-----------------------4--------4--4-----------------------------------------
A|-----------------------------|-----------------------------------------------------------------------------
E|-----------------------------|-----------------------------------------------------------------------------

Stave 9:

E|--------------------|-----0-----------------------|--------------0--------------------------
B|--------------------|--2-----3--2--0-----0--2--0--|-----------2-----3--2--0--------2--0-----
G|--------------------|-----------------2-----------|--------------------------2-----------2--
D|--4--------4--4--4--|-----------------------------|--4--4--4--------------------2-----------
A|--------------------|-----------------------------|-----------------------------------------
E|--------------------|-----------------------------|-----------------------------------------

Stave 10:

E|--------------------------------------------------------|-----------------------------------------------------
B|--2--2--2--2--2--2--3--2--0-----0--------2--3--2--0-----|--2--3--2--0-----0--------2--3--2--0-----0-----------
G|-----------------------------2-----2--2--------------2--|--------------2-----2--2--------------2-----2--1-----
D|--------------------------------------------------------|--------------------------------------------------4--
A|--------------------------------------------------------|-----------------------------------------------------
E|--------------------------------------------------------|-----------------------------------------------------

Stave 11:

E|--0-----------------------------------------|--------------------------|-----------------------|--------0--------------------|-----------------------
B|-----3--2-----0-----0--2-----------0--2--0--|--2--------2-----0-----0--|-----2--0--0-----------|-----2-----3--2-----0-----0--|--2--------------------
G|-----------2-----2--------2-----2-----------|-----2--2-----2-----2-----|--------------2--------|-----------------2-----2-----|--------------1--------
D|-----------------------------4--------------|--------------------------|--4-----------------4--|-----------------------------|-----2-----2-----4--2--
A|--------------------------------------------|--------------------------|-----------------------|-----------------------------|--------4--------------
E|--------------------------------------------|--------------------------|-----------------------|-----------------------------|-----------------------

Stave 12:

E|-----0--------------------|--------------------
B|--2-----3--2-----0-----0--|--------------------
G|--------------2-----2-----|--------------------
D|--------------------------|--4-----2--1--4--4--
A|--------------------------|-----4--------------
E|--------------------------|--------------------

Stave 13:4/2x

E|-----0--------------------------------------
B|--2-----3--2-----0-----0-----2--------------
G|--------------2-----2-----------------------
D|--------------------------------------4--4--
A|--------------------------------------------
E|--------------------------------------------

							http://www.guitartabcreator.com
Chords

Instruments
{"strings":[[[".","_",".",".","_",".","_",".","_",".",".",".","|",".","_",".",".","_",".","_",".","_",".",".","."],[".","_",2,3,"_",3,"_",0,"_",2,0,".","|",".","_",2,3,"_",3,"_",0,"_",2,0,"."],[".","_",".",".","_",".","_",".","_",".",".",".","|",".","_",".",".","_",".","_",".","_",".",".","."],[4,"_",".",".","_",".","_",".","_",".",".",2,"|",4,"_",".",".","_",".","_",".","_",".",".",2],[".","_",".",".","_",".","_",".","_",".",".",".","|",".","_",".",".","_",".","_",".","_",".",".","."],[".","_",".",".","_",".","_",".","_",".",".",".","|",".","_",".",".","_",".","_",".","_",".",".","."]],[[".","_",".",".",".",".",".","|",".",".",".",".",".","_",".","|",".",".",".",".",".","|",".",".","_",".",".",".","."],[".","_",".",0,".",0,".","|",0,0,".",0,2,"_",2,"|",".",0,".",0,".","|",".",0,"_",".",0,2,"."],[".","_",2,".",2,".",2,"|",".",".",2,".",".","_",".","|",2,".",2,".",2,"|",2,".","_",2,".",".",2],[4,"_",".",".",".",".",".","|",".",".",".",".",".","_",".","|",".",".",".",".",".","|",".",".","_",".",".",".","."],[".","_",".",".",".",".",".","|",".",".",".",".",".","_",".","|",".",".",".",".",".","|",".",".","_",".",".",".","."],[".","_",".",".",".",".",".","|",".",".",".",".",".","_",".","|",".",".",".",".",".","|",".",".","_",".",".",".","."]],[[".",2,0,".",".",".",".",".",".",".",".","_",".",".",".",".",".","|",".","_",2,0,2,".",".",".",".",".","|",".",".",".","_","_",".",".",".",".",".","."],[".",".",".",2,0,2,0,".",".",0,2,"_",".",".",2,2,".","|",".","_",".",".",".",2,0,2,0,".","|",".",0,2,"_","_",".",".",".",0,2,"."],[2,".",".",".",".",".",".",2,".",".",".","_",2,".",".",".",2,"|",2,"_",".",".",".",".",".",".",".",2,"|",".",".",".","_","_",".",2,".",".",".",2],[".",".",".",".",".",".",".",".",4,".",".","_",".",4,".",".",".","|",".","_",".",".",".",".",".",".",".",".","|",4,".",".","_","_",4,".",4,".",".","."],[".",".",".",".",".",".",".",".",".",".",".","_",".",".",".",".",".","|",".","_",".",".",".",".",".",".",".",".","|",".",".",".","_","_",".",".",".",".",".","."],[".",".",".",".",".",".",".",".",".",".",".","_",".",".",".",".",".","|",".","_",".",".",".",".",".",".",".",".","|",".",".",".","_","_",".",".",".",".",".","."]],[[".",".",0,".",".","|",".",".","_",".",".",".",".",".",".",".","|",".",".",".",0,".",".","|",".",".",".",".",".",".",".",".","."],[".",3,".",3,2,"|",0,".","_",".",2,0,".",".",".",".","|",0,2,3,".",3,2,"|",0,".",0,2,0,".",".",".","."],[2,".",".",".",".","|",".",2,"_",2,".",".",2,".",".",".","|",".",".",".",".",".",".","|",".",2,".",".",".",2,".",".","."],[".",".",".",".",".","|",".",".","_",".",".",".",".",4,2,4,"|",".",".",".",".",".",".","|",".",".",".",".",".",".",4,2,4],[".",".",".",".",".","|",".",".","_",".",".",".",".",".",".",".","|",".",".",".",".",".",".","|",".",".",".",".",".",".",".",".","."],[".",".",".",".",".","|",".",".","_",".",".",".",".",".",".",".","|",".",".",".",".",".",".","|",".",".",".",".",".",".",".",".","."]],[[2,0,2,2,".",".",".",".",".","_","_",".","|",".",".",".",".",".",0,".",".","."],[".",".",".",".",2,0,".",".",0,"_","_",".","|",".",".",0,2,3,".",3,2,0],[".",".",".",".",".",".",2,".",".","_","_",".","|",".",2,".",".",".",".",".",".","."],[".",".",".",".",".",".",".",4,".","_","_",4,"|",4,".",".",".",".",".",".",".","."],[".",".",".",".",".",".",".",".",".","_","_",".","|",".",".",".",".",".",".",".",".","."],[".",".",".",".",".",".",".",".",".","_","_",".","|",".",".",".",".",".",".",".",".","."]],[["_","_","_",".",".",".","_",".","|",".",".",".",".",".","_",".","|",".",".",".",".",".","|",".",2,0,2,".",".",".",".",".","_",".",".",".","|",".",".",".",".",".","."],["_","_","_",0,".",0,"_",".","|",0,0,".",0,2,"_",2,"|",".",0,".",0,".","|",".",".",".",".",2,0,2,0,".","_",".",0,2,"|",".",".",".",0,2,"."],["_","_","_",".",2,".","_",2,"|",".",".",2,".",".","_",".","|",2,".",2,".",2,"|",2,".",".",".",".",".",".",".",2,"_",".",".",".","|",".",2,".",".",".",2],["_","_","_",".",".",".","_",".","|",".",".",".",".",".","_",".","|",".",".",".",".",".","|",".",".",".",".",".",".",".",".",".","_",4,".",".","|",4,".",4,".",".","."],["_","_","_",".",".",".","_",".","|",".",".",".",".",".","_",".","|",".",".",".",".",".","|",".",".",".",".",".",".",".",".",".","_",".",".",".","|",".",".",".",".",".","."],["_","_","_",".",".",".","_",".","|",".",".",".",".",".","_",".","|",".",".",".",".",".","|",".",".",".",".",".",".",".",".",".","_",".",".",".","|",".",".",".",".",".","."]],[[".",2,0,2,".",".",".",".",".","|",".",".",".","_","_",".",".",".",".",".",".","|",".",".",0,".",".","_","|",".",".","_",".",".",".",".",".",".",".","_",".",".",".",0,".","."],[".",".",".",".",2,0,2,0,".","|",".",0,2,"_","_",".",".",".",0,2,".","|",".",3,".",3,2,"_","|",0,".","_",".",2,0,".",".",".",".","_",0,2,3,".",3,2],[2,".",".",".",".",".",".",".",2,"|",".",".",".","_","_",".",2,".",".",".",2,"|",2,".",".",".",".","_","|",".",2,"_",2,".",".",2,".",".",".","_",".",".",".",".",".","."],[".",".",".",".",".",".",".",".",".","|",4,".",".","_","_",4,".",4,".",".",".","|",".",".",".",".",".","_","|",".",".","_",".",".",".",".",4,2,4,"_",".",".",".",".",".","."],[".",".",".",".",".",".",".",".",".","|",".",".",".","_","_",".",".",".",".",".",".","|",".",".",".",".",".","_","|",".",".","_",".",".",".",".",".",".",".","_",".",".",".",".",".","."],[".",".",".",".",".",".",".",".",".","|",".",".",".","_","_",".",".",".",".",".",".","|",".",".",".",".",".","_","|",".",".","_",".",".",".",".",".",".",".","_",".",".",".",".",".","."]],[[".",".",".",".",".",".",".",".",".","|",2,0,2,2,".",".",".",".",".","_",".",".",".",".",".",".",".",".",".",".",".",".","_","_","."],[0,".",0,2,0,".",".",".",".","|",".",".",".",".",2,0,".",".",0,"_",".",".",".",0,2,3,2,0,".",".",2,0,"_","_",0],[".",2,".",".",".",2,".",".",".","|",".",".",".",".",".",".",2,".",".","_",".",".",2,".",".",".",".",".",2,2,".",".","_","_","."],[".",".",".",".",".",".",4,2,4,"|",".",".",".",".",".",".",".",4,".","_",4,4,".",".",".",".",".",".",".",".",".",".","_","_","."],[".",".",".",".",".",".",".",".",".","|",".",".",".",".",".",".",".",".",".","_",".",".",".",".",".",".",".",".",".",".",".",".","_","_","."],[".",".",".",".",".",".",".",".",".","|",".",".",".",".",".",".",".",".",".","_",".",".",".",".",".",".",".",".",".",".",".",".","_","_","."]],[[".","_","_",".",".",".","|",".",0,".",".",".",".",".",".",".","|",".",".",".",".",0,".",".",".",".",".",".",".","."],[".","_","_",".",".",".","|",2,".",3,2,0,".",0,2,0,"|",".",".",".",2,".",3,2,0,".",".",2,0,"."],[".","_","_",".",".",".","|",".",".",".",".",".",2,".",".",".","|",".",".",".",".",".",".",".",".",2,".",".",".",2],[4,"_","_",4,4,4,"|",".",".",".",".",".",".",".",".",".","|",4,4,4,".",".",".",".",".",".",2,".",".","."],[".","_","_",".",".",".","|",".",".",".",".",".",".",".",".",".","|",".",".",".",".",".",".",".",".",".",".",".",".","."],[".","_","_",".",".",".","|",".",".",".",".",".",".",".",".",".","|",".",".",".",".",".",".",".",".",".",".",".",".","."]],[[".",".",".",".",".",".",".",".",".",".",".",".",".",".",".",".",".",".","|",".",".",".",".",".",".",".",".",".",".",".",".",".",".",".",".","."],[2,2,2,2,2,2,3,2,0,".",0,".",".",2,3,2,0,".","|",2,3,2,0,".",0,".",".",2,3,2,0,".",0,".",".","."],[".",".",".",".",".",".",".",".",".",2,".",2,2,".",".",".",".",2,"|",".",".",".",".",2,".",2,2,".",".",".",".",2,".",2,1,"."],[".",".",".",".",".",".",".",".",".",".",".",".",".",".",".",".",".",".","|",".",".",".",".",".",".",".",".",".",".",".",".",".",".",".",".",4],[".",".",".",".",".",".",".",".",".",".",".",".",".",".",".",".",".",".","|",".",".",".",".",".",".",".",".",".",".",".",".",".",".",".",".","."],[".",".",".",".",".",".",".",".",".",".",".",".",".",".",".",".",".",".","|",".",".",".",".",".",".",".",".",".",".",".",".",".",".",".",".","."]],[[0,".",".",".",".",".",".",".",".",".",".",".",".",".","|",".",".",".",".",".",".",".",".","|",".",".",".",".","_","_",".","|","_",".",0,".",".",".",".",".",".","|",".",".",".",".",".",".","."],[".",3,2,".",0,".",0,2,".",".",".",0,2,0,"|",2,".",".",2,".",0,".",0,"|",".",2,0,0,"_","_",".","|","_",2,".",3,2,".",0,".",0,"|",2,".",".",".",".",".","."],[".",".",".",2,".",2,".",".",2,".",2,".",".",".","|",".",2,2,".",2,".",2,".","|",".",".",".",".",2,"_",".","|","_",".",".",".",".",2,".",2,".","|",".",".",".",".",1,".","."],[".",".",".",".",".",".",".",".",".",4,".",".",".",".","|",".",".",".",".",".",".",".",".","|",4,".",".",".","_","_",4,"|","_",".",".",".",".",".",".",".",".","|",".",2,".",2,".",4,2],[".",".",".",".",".",".",".",".",".",".",".",".",".",".","|",".",".",".",".",".",".",".",".","|",".",".",".",".","_","_",".","|","_",".",".",".",".",".",".",".",".","|",".",".",4,".",".",".","."],[".",".",".",".",".",".",".",".",".",".",".",".",".",".","|",".",".",".",".",".",".",".",".","|",".",".",".",".","_","_",".","|","_",".",".",".",".",".",".",".",".","|",".",".",".",".",".",".","."]],[[".",0,".",".",".",".",".",".","|",".",".",".",".",".","."],[2,".",3,2,".",0,".",0,"|",".",".",".",".",".","."],[".",".",".",".",2,".",2,".","|",".",".",".",".",".","."],[".",".",".",".",".",".",".",".","|",4,".",2,1,4,4],[".",".",".",".",".",".",".",".","|",".",4,".",".",".","."],[".",".",".",".",".",".",".",".","|",".",".",".",".",".","."]],[[".",0,".",".",".",".",".",".","_",".","_","_",".","."],[2,".",3,2,".",0,".",0,"_",2,"_","_",".","."],[".",".",".",".",2,".",2,".","_",".","_","_",".","."],[".",".",".",".",".",".",".",".","_",".","_","_",4,4],[".",".",".",".",".",".",".",".","_",".","_","_",".","."],[".",".",".",".",".",".",".",".","_",".","_","_",".","."]]],"numberofstrings":6,"notes":["E","B","G","D","A","E","B"],"capo":0,"stringnotes":["E4","B3","G3","D3","A2","E2"],"comments":["Stave 1:","Stave 2:","Stave 3:","Stave 4:","Stave 5:","Stave 6:","Stave 7:","Stave 8:","Stave 9:","Stave 10:","Stave 11:","Stave 12:","Stave 13:4/2x"],"timing":[["W","W","W","W","W","W","W","W","W","W","W","W",null,"W","W","W","W","W","W","W","W","W","W","W","W"],["W","W","W","W","W","W","W",null,"W","W","W","W","W","W","W",null,"W","W","W","W","W",null,"W","W","W","W","W","W","W"],["W","W","W","W","W","W","W","W","W","W","W","W","W","W","W","W","W",null,"W","W","W","W","W","W","W","W","W","W",null,"W","W","W","W","W","W","W","W","W","W","W"],["W","W","W","W","W",null,"W","W","W","W","W","W","W","W","W","W",null,"W","W","W","W","W","W",null,"W","W","W","W","W","W","W","W","W"],["W","W","W","W","W","W","W","W","W","W","W","W",null,"W","W","W","W","W","W","W","W","W"],["W","W","W","W","W","W","W","W",null,"W","W","W","W","W","W","W",null,"W","W","W","W","W",null,"W","W","W","W","W","W","W","W","W","W","W","W","W",null,"W","W","W","W","W","W"],["W","W","W","W","W","W","W","W","W",null,"W","W","W","W","W","W","W","W","W","W","W",null,"W","W","W","W","W","W",null,"W","W","W","W","W","W","W","W","W","W","W","W","W","W","W","W","W"],["W","W","W","W","W","W","W","W","W",null,"W","W","W","W","W","W","W","W","W","W","W","W","W","W","W","W","W","W","W","W","W","W","W","W","W"],["W","W","W","W","W","W",null,"W","W","W","W","W","W","W","W","W",null,"W","W","W","W","W","W","W","W","W","W","W","W","W"],["W","W","W","W","W","W","W","W","W","W","W","W","W","W","W","W","W","W",null,"W","W","W","W","W","W","W","W","W","W","W","W","W","W","W","W","W"],["W","W","W","W","W","W","W","W","W","W","W","W","W","W",null,"W","W","W","W","W","W","W","W",null,"W","W","W","W","W","W","W","W","W","W","W","W","W",null,"W","W","W","W","W","W","W"],["W","W","W","W","W","W","W","W",null,"W","W","W","W","W","W"],["W","W","W","W","W","W","W","W","W","W","W","W","W","W"]],"timingvisible":false,"tabcounter":14,"stave":12,"totalstaves":13,"instrument":"6guitar","selectedtuning":"6_standard","version":"13"}

Member for

2 months 1 week
Submitted by Zipy on Sun, 2021-12-05 09:24