Sound will begin in 5 seconds

The Man Who Sold the World by Nirvana

01234567891011121314151617181920212223
E
B
G
D
A
E
B
0 1 2 3 4 5 6 7 8 9 10 11 12 13 14 15 16 17 18 19 20 21 22 23
Song Science #1: How Pros Use 6 Chords to Write Hit Songs
(/) Slide Up  (\) Slide Down  (h) Hammer On  (p) Pull Off  (b) Bend (r) Release (v) Vibrato

Stave 1:

G|-----------------------|-----------------------|-----
D|-----------------------|-----------------------|-----
A|--7--7--7--------7--6--|--7--7--7-----7--6--5--|--4--
E|-----------7--7--------|-----------7-----------|-----

Stave 2:

G|--------------|-----------------|--------------------|--------------------|-----------------|--
D|--------6-----|-----------------|--------6-----6-----|--------6--4--------|-----------------|--
A|-----6-----6--|--------------2--|--4--4-----4-----4--|--4--4--------7--6--|-----6-----------|--
E|--4-----------|--4--4--3--4-----|--------------------|--------------------|--4-----4--4--4--|--

Stave 3:

G|--------------------|--------4-----4-----|--------------------|--------------------|--------------------
D|--------------------|--2--2-----2-----2--|--2--2--2--4--2--1--|--------4-----------|--------------------
A|--------6--5--4--3--|--------------------|--------------------|--2--2-----2-----2--|--2--2--2--4--2--0--
E|--4--4--------------|--------------------|--------------------|--------------4-----|--------------------

Stave 4:

G|--------------------|--------|--------------------|--------------------|--
D|--------6-----------|--------|--------6-----6-----|--------6-----------|--
A|--------------6-----|--------|--4--4-----4-----4--|--4--4-----4--4--6--|--
E|--4--4-----4-----4--|--4--7--|--------------------|--------------------|--

Stave 5:

G|-----------------1--3--4--|--------------------------|--------------|--------------------------|--
D|--------1--2--4-----------|--------------------0--2--|--------2-----|--------------------1--2--|--
A|--2--4--------------------|-----------0--2--4--------|--3--3-----3--|-----------0--2--4--------|--
E|--------------------------|--0--2--4-----------------|--------------|--0--2--4-----------------|--

Stave 6:

G|-----------------1--3--4--|--------------------------|--------------|-----|--|-----|--
D|--------1--2--4-----------|--------------------1--2--|--------2-----|-----|--|-----|--
A|--2--4--------------------|-----------0--2--4--------|--3--3-----3--|-----|--|--4--|--
E|--------------------------|--0--2--4-----------------|--------------|--4--|--|-----|--

Stave 7:

G|-----------------------|-----------------------|-----------------------|-----------------------|--
D|-----------------------|-----------------------|-----------------------|-----------------------|--
A|--7--7--7--------7--6--|--7--7--7-----7--6--5--|--4--4--4--------4--2--|--4--4--4-----4--2--0--|--
E|-----------7--7--------|-----------7-----------|-----------4--4--------|-----------4-----------|--

Stave 8:

G|--------------------|--------------------|--------------------|--------------------|--
D|--------------6-----|--------6-----------|--------------------|--------------------|--
A|--------6-----------|--------------2--3--|--4--4--------4-----|--4--4-----4--5--6--|--
E|--4--4-----4-----4--|--4--4-----4--------|--------4--4-----4--|--------4-----------|--

http://www.guitartabcreator.com
Guitar Tab Creator is intended to store guitar tab created through the tool. It currently does not support in-line text editing. Any text you place in here will be lost. If you need to comment on your tab, please use the "Tab Notes" section located below.