Sound will begin in 5 seconds

Baby I Love You by Aretha Franklin

01234567891011121314151617181920212223
E
B
G
D
A
E
B
0 1 2 3 4 5 6 7 8 9 10 11 12 13 14 15 16 17 18 19 20 21 22 23
Song Science #1: How Pros Use 6 Chords to Write Hit Songs
(/) Slide Up  (\) Slide Down  (h) Hammer On  (p) Pull Off  (b) Bend (r) Release (v) Vibrato

Stave 1:

G|-----------------------|-----------------------|-----------------------|-----------------------|--
D|--5--0--0--0--0--3--4--|--5--0--0--0--0--3--4--|--5--0--0--0--0--3--4--|--5--0--0--4--5--------|--
A|-----------------------|-----------------------|-----------------------|-----------------5--4--|--
E|-----------------------|-----------------------|-----------------------|-----------------------|--

Stave 2:

G|--------------------|--------------------|-----------------------|--------------------|--
D|--------------------|-----------2--3--4--|--5--0--0--0--0--5--3--|--5--0--5-----------|--
A|--3-----------1--2--|--3--3--3-----------|-----------------------|-----------2--3--4--|--
E|-----3--3--3--------|--------------------|-----------------------|--------------------|--

Stave 3:

G|--------------------|-----------------------|-----------------------|-----------------------|--
D|--0-----0--0--3--4--|--5--0--0--0--0--3--4--|--5--0--0--0--0--3--4--|--5--0--0--0--0--5-----|--
A|-----0--------------|-----------------------|-----------------------|--------------------4--|--
E|--------------------|-----------------------|-----------------------|-----------------------|--

Stave 4:

G|-----------------------|--------------------|-----------------------|-----------------------|--
D|-----------------------|-----------2--3--4--|--5--5--5--5--0--0--3--|--5--5--5--5--0--0--3--|--
A|--3--------------0--2--|--3--3--3-----------|-----------------------|-----------------------|--
E|-----3--3--3--3--------|--------------------|-----------------------|-----------------------|--

Stave 5:

G|-----------------------|-----------------------|--------------------|-----------------------|--
D|--5--0--5--5--5--3--0--|-----------------------|--------------------|-----------------------|--
A|-----------------------|--3--3--3--------0--2--|--3--3--3--2--3--4--|--5--------------------|--
E|-----------------------|-----------3--3--------|--------------------|-----------------------|--

Stave 6:

G|-----------------------|--
D|-----------------------|--
A|-----------------------|--
E|-----------------------|--

http://www.guitartabcreator.com
Guitar Tab Creator is intended to store guitar tab created through the tool. It currently does not support in-line text editing. Any text you place in here will be lost. If you need to comment on your tab, please use the "Tab Notes" section located below.