Skip to main content

self-made masokissed

0 1 2 3 4 5 6 7 8 9 10 11 12 13 14 15 16 17 18 19 20 21 22 23
E
B
G
D
A
E
0 1 2 3 4 5 6 7 8 9 10 11 12 13 14 15 16 17 18 19 20 21 22 23
(/) Slide Up  (\) Slide Down  (h) Hammer On  (p) Pull Off  (b) Bend (r) Release (v) Vibrato

Stave 1:

E|--------------------------|--------------------------|----------------------------------|--------------------------
B|--------------------------|--------------------------|----------------------------------|--------------------------
G|--------------------------|--------------------------|----------------------------------|--------------------------
D|--------3-----3-----3-----|--------5-----5-----5-----|----------10------10------10------|--------7-----7-----7-----
A|-----3-----3-----3-----3--|-----5-----5-----5-----5--|------10------10------10------10--|-----7-----7-----7-----7--
D|--3-----------------------|--5-----------------------|--10------------------------------|--7-----------------------

Stave 2:

E|--------------|--------|------------------|--------
B|--------------|--------|------------------|--------
G|--------------|--------|------------------|--------
D|--------3-----|--------|----------10------|--------
A|-----3-----3--|--------|------10------10--|--------
D|--3-----------|--5--5--|--10--------------|--7--7--

							https://www.guitartabcreator.com
Chords

Instruments
{"strings":[[[".",".",".",".",".",".",".",".","|",".",".",".",".",".",".",".",".","|",".",".",".",".",".",".",".",".","|",".",".",".",".",".",".",".","."],[".",".",".",".",".",".",".",".","|",".",".",".",".",".",".",".",".","|",".",".",".",".",".",".",".",".","|",".",".",".",".",".",".",".","."],[".",".",".",".",".",".",".",".","|",".",".",".",".",".",".",".",".","|",".",".",".",".",".",".",".",".","|",".",".",".",".",".",".",".","."],[".",".",3,".",3,".",3,".","|",".",".",5,".",5,".",5,".","|",".",".",10,".",10,".",10,".","|",".",".",7,".",7,".",7,"."],[".",3,".",3,".",3,".",3,"|",".",5,".",5,".",5,".",5,"|",".",10,".",10,".",10,".",10,"|",".",7,".",7,".",7,".",7],[3,".",".",".",".",".",".",".","|",5,".",".",".",".",".",".",".","|",10,".",".",".",".",".",".",".","|",7,".",".",".",".",".",".","."]],[[".",".",".",".","|",".",".","|",".",".",".",".","|",".","."],[".",".",".",".","|",".",".","|",".",".",".",".","|",".","."],[".",".",".",".","|",".",".","|",".",".",".",".","|",".","."],[".",".",3,".","|",".",".","|",".",".",10,".","|",".","."],[".",3,".",3,"|",".",".","|",".",10,".",10,"|",".","."],[3,".",".",".","|",5,5,"|",10,".",".",".","|",7,7]]],"numberofstrings":6,"notes":["E","B","G","D","A","D","B"],"capo":0,"stringnotes":["E4","B3","G3","D3","A2","D2"],"comments":["Stave 1:","Stave 2:"],"timing":[["Q","Q","Q","Q","Q","Q","Q","Q",null,"Q","Q","Q","Q","Q","Q","Q","Q",null,"Q","Q","Q","Q","Q","Q","Q","Q",null,"Q","Q","Q","Q","Q","Q","Q","Q"],["H","Q","E","E",null,"E","E",null,"E","E","E","E",null,"E","E"]],"timingvisible":false,"tabcounter":15,"stave":1,"totalstaves":2,"instrument":"6guitar","selectedtuning":"6_standard","version":"13"}
Submitted by zilofine on