PEACHES xChrist-Daniel AK vers

01234567891011121314151617181920212223
E
B
G
D
A
E
B
0 1 2 3 4 5 6 7 8 9 10 11 12 13 14 15 16 17 18 19 20 21 22 23
(/) Slide Up  (\) Slide Down  (h) Hammer On  (p) Pull Off  (b) Bend (r) Release (v) Vibrato

Stave 1:

G|-------------------------------------------------------------------------------------------------------------------------------
D|-----------------------------------------------------------7--------------------------5----------------------------2-----3-----
A|--8--x--x--x--x--8--------8h10-----7--x--x--x--x--7-----------5--x--x--x--x--5-----------3--x--x--x--x--3-----2h3-----3--------
E|-----------------------8--------------------------------5--------------------------3-------------------------------------------
B|-------------------------------------------------------------------------------------------------------------------------------

Stave 2:

G|-------------------------------------------------------------------------------------------------------------------------------------
D|-----------------3--x--3-----x--3-----2--x--x--x--x--2--------7--------------------------5----------------------------------2--------
A|--3--x--x--x--x--------------------------------------------------5--x--x--x--x--5-----------3--x--x--x--x--3--x--3-----2h3-----3-----
E|-----------------------------------------------------------5--------------------------3----------------------------------------------
B|-------------------------------------------------------------------------------------------------------------------------------------

0:40

G|----------------------------------------------------------------------------------------------5-----7-----9-----------
D|--3--x--x--x--x--3-----x--3h5--2--x--x--x--x--2--------------7--------------------------5-----------------------------
A|----------------------------------------------------------------5--x--x--x--x--5-----------3-----5-----7-----3--------
E|----------------------------------------------------x--x--5--------------------------3--------------------------------
B|----------------------------------------------------------------------------------------------------------------------

Stave 4:

G|--------------------------------------------------------------------------------------------------------------------------------5--
D|--3-----3--x--x--x--x--3--x--3-----x--3-----2--x--x--x--x--2--------7--------------------------------------------------------------
A|-----3-----------------------------------------------------------------5--x--x--x--x--5-----x--5----------3--5--7--5/7\5--3--------
E|-----------------------------------------------------------------5-----------------------------------3h5---------------------------
B|-----------------------------------------------------------------------------------------------------------------------------------

Stave 5:

G|----------------------------------------------------------------------------------------------------------------------------------
D|--3--x--x--x--x--3--3-----12\---2--x--x--x--x--2--------7--------------------------5-------------------------------------2--------
A|-----------------------------------------------------------5--x--x--x--x--5-----------3--x--x--x--x--3-----x--3-----2h3-----3-----
E|-----------------------------------------------------5--------------------------3-------------------------------------------------
B|----------------------------------------------------------------------------------------------------------------------------------

1:11

G|-----------------------------------------------------------------------------------------------5\4----------------------------------------
D|--3--x--x--x--x--3-----3h5--2--x--x--x--x--2-----7----------------------------------5-----5h7-------7--5--3\2-----------------------------
A|----------------------------------------------------5--x--x--x--x--5--x--5-----5h7-----7-----------------------5--3--2--3--5-----3--2-----
E|----------------------------------------------5-------------------------------------------------------------------------------------------
B|------------------------------------------------------------------------------------------------------------------------------------------

Stave 7:

G|--------------------------------------------------------------------------------------------------------5--
D|--3--x--x--x--x--3-----3h5--2--x--x--x--x--2-----7--------------------------------5------------------------
A|----------------------------------------------------5--x--x--x--x--5--x--5-----------3--5--7--5/7\5--3-----
E|----------------------------------------------5--------------------------------3---------------------------
B|-----------------------------------------------------------------------------------------------------------

Stave 8:

G|---------------------------------------------------------------------------------------------2/4--4/5--5--4-------------------------
D|--3--x--x--x--x--3-----3h5-----2--x--x--x--x--2-----7-------------------------------------2------------------7--5--4/3--------3-----
A|-------------------------------------------------------5--x--x--x--x--5--------------2h3--------------------------------5--3--------
E|-------------------------------------------------5--------------------------------5-------------------------------------------------
B|------------------------------------------------------------------------------------------------------------------------------------

Stave 9:

G|-----------------------------------------------------------------------------------------------------------------5--------7--
D|--3--x--x--x--3-----x--3-----x--3--2-----x--x--x--x--2-----7-----------------------------------------------------------------
A|--------------------------------------------------------------5--x--x--x--x--5-----x--5--------3--x--x--x--x--3--------5-----
E|--------------------------------------------------------5-----------------------------------3--------------------------------
B|-----------------------------------------------------------------------------------------------------------------------------

Stave 10:

G|--------------
D|-----3--------
A|--3-----------
E|--------------
B|--------------

							http://www.guitartabcreator.com
Chords

Instruments
{"strings":[[[".","_","_","_","_","_","_","_","_","_","_","_","_","_","_","_","_","_","_","_","_","_","_","_","_","_","_","_","_","_","_","_","_","_","_","_","_","_","_","_","_","_","_","_"],[".","_","_","_","_","_","_","_","_","_","_","_","_","_","_","_","_","_","_","_",7,"_","_","_","_","_","_","_","_",5,"_","_","_","_","_","_","_","_","_","_",2,"_",3,"_"],[8,"x","x","x","x",8,"_","_",8,"h",10,"_",7,"x","x","x","x",7,"_","_","_",5,"x","x","x","x",5,"_","_","_",3,"x","x","x","x",3,"_",2,"h",3,"_",3,"_","_"],[".","_","_","_","_","_","_",8,"_","_","_","_","_","_","_","_","_","_","_",5,"_","_","_","_","_","_","_","_",3,"_","_","_","_","_","_","_","_","_","_","_","_","_","_","_"],[".","_","_","_","_","_","_","_","_","_","_","_","_","_","_","_","_","_","_","_","_","_","_","_","_","_","_","_","_","_","_","_","_","_","_","_","_","_","_","_","_","_","_","_"]],[[".","_","_","_","_","_","_","_","_","_","_","_","_","_","_","_","_","_","_","_","_","_","_","_","_","_","_","_","_","_","_","_","_","_","_","_","_","_","_","_","_","_","_","_","_"],[".","_","_","_","_",3,"x",3,"_","x",3,"_",2,"x","x","x","x",2,"_","_",7,"_","_","_","_","_","_","_","_",5,"_","_","_","_","_","_","_","_","_","_","_","_",2,"_","_"],[3,"x","x","x","x","_","_","_","_","_","_","_","_","_","_","_","_","_","_","_","_",5,"x","x","x","x",5,"_","_","_",3,"x","x","x","x",3,"x",3,"_",2,"h",3,"_",3,"_"],["_","_","_","_","_","_","_","_","_","_","_","_","_","_","_","_","_","_","_",5,"_","_","_","_","_","_","_","_",3,"_","_","_","_","_","_","_","_","_","_","_","_","_","_","_","_"],[".","_","_","_","_","_","_","_","_","_","_","_","_","_","_","_","_","_","_","_","_","_","_","_","_","_","_","_","_","_","_","_","_","_","_","_","_","_","_","_","_","_","_","_","_"]],[["_","_","_","_","_","_","_","_","_","_","_","_","_","_","_","_","_","_","_","_","_","_","_","_","_","_","_","_","_","_","_","_",5,"_",7,"_",9,"_","_","_"],[3,"x","x","x","x",3,"_","x",3,"h",5,2,"x","x","x","x",2,"_","_","_","_",7,"_","_","_","_","_","_","_","_",5,"_","_","_","_","_","_","_","_","_"],["_","_","_","_","_","_","_","_","_","_","_","_","_","_","_","_","_","_","_","_","_","_",5,"x","x","x","x",5,"_","_","_",3,"_",5,"_",7,"_",3,"_","_"],["_","_","_","_","_","_","_","_","_","_","_","_","_","_","_","_","_","_","x","x",5,"_","_","_","_","_","_","_","_",3,"_","_","_","_","_","_","_","_","_","_"],["_","_","_","_","_","_","_","_","_","_","_","_","_","_","_","_","_","_","_","_","_","_","_","_","_","_","_","_","_","_","_","_","_","_","_","_","_","_","_","_"]],[["_","_","_","_","_","_","_","_","_","_","_","_","_","_","_","_","_","_","_","_","_","_","_","_","_","_","_","_","_","_","_","_","_","_","_","_","_","_","_","_","_","_","_","_","_","_",5],[3,"_",3,"x","x","x","x",3,"x",3,"_","x",3,"_",2,"x","x","x","x",2,"_","_",7,"_","_","_","_","_","_","_","_","_","_","_","_","_","_","_","_","_","_","_","_","_","_","_","_"],["_",3,"_","_","_","_","_","_","_","_","_","_","_","_","_","_","_","_","_","_","_","_","_",5,"x","x","x","x",5,"_","x",5,"_","_","_","_",3,5,7,5,"/",7,"\\",5,3,"_","_"],["_","_","_","_","_","_","_","_","_","_","_","_","_","_","_","_","_","_","_","_","_",5,"_","_","_","_","_","_","_","_","_","_","_",3,"h",5,"_","_","_","_","_","_","_","_","_","_","_"],["_","_","_","_","_","_","_","_","_","_","_","_","_","_","_","_","_","_","_","_","_","_","_","_","_","_","_","_","_","_","_","_","_","_","_","_","_","_","_","_","_","_","_","_","_","_","_"]],[[".","_","_","_","_","_","_","_","_","_","_","_","_","_","_","_","_","_","_","_","_","_","_","_","_","_","_","_","_","_","_","_","_","_","_","_","_","_","_","_","_","_","_","_","_"],[3,"x","x","x","x",3,3,"_",12,"\\","_",2,"x","x","x","x",2,"_","_",7,"_","_","_","_","_","_","_","_",5,"_","_","_","_","_","_","_","_","_","_","_","_","_",2,"_","_"],[".","_","_","_","_","_","_","_","_","_","_","_","_","_","_","_","_","_","_","_",5,"x","x","x","x",5,"_","_","_",3,"x","x","x","x",3,"_","x",3,"_",2,"h",3,"_",3,"_"],[".","_","_","_","_","_","_","_","_","_","_","_","_","_","_","_","_","_",5,"_","_","_","_","_","_","_","_",3,"_","_","_","_","_","_","_","_","_","_","_","_","_","_","_","_","_"],[".","_","_","_","_","_","_","_","_","_","_","_","_","_","_","_","_","_","_","_","_","_","_","_","_","_","_","_","_","_","_","_","_","_","_","_","_","_","_","_","_","_","_","_","_"]],[[".","_","_","_","_","_","_","_","_","_","_","_","_","_","_","_","_","_","_","_","_","_","_","_","_","_","_","_","_","_","_","_","_","_","_",5,"\\",4,"_","_","_","_","_","_","_","_","_","_","_","_","_","_"],[3,"x","x","x","x",3,"_",3,"h",5,2,"x","x","x","x",2,"_",7,"_","_","_","_","_","_","_","_","_","_","_","_",5,"_",5,"h",7,"_","_","_",7,5,3,"\\",2,"_","_","_","_","_","_","_","_","_"],[".","_","_","_","_","_","_","_","_","_","_","_","_","_","_","_","_","_",5,"x","x","x","x",5,"x",5,"_",5,"h",7,"_",7,"_","_","_","_","_","_","_","_","_","_","_",5,3,2,3,5,"_",3,2,"_"],[".","_","_","_","_","_","_","_","_","_","_","_","_","_","_","_",5,"_","_","_","_","_","_","_","_","_","_","_","_","_","_","_","_","_","_","_","_","_","_","_","_","_","_","_","_","_","_","_","_","_","_","_"],[".","_","_","_","_","_","_","_","_","_","_","_","_","_","_","_","_","_","_","_","_","_","_","_","_","_","_","_","_","_","_","_","_","_","_","_","_","_","_","_","_","_","_","_","_","_","_","_","_","_","_","_"]],[[".","_","_","_","_","_","_","_","_","_","_","_","_","_","_","_","_","_","_","_","_","_","_","_","_","_","_","_","_","_","_","_","_","_","_","_","_","_",5],[3,"x","x","x","x",3,"_",3,"h",5,2,"x","x","x","x",2,"_",7,"_","_","_","_","_","_","_","_","_","_",5,"_","_","_","_","_","_","_","_","_","_"],[".","_","_","_","_","_","_","_","_","_","_","_","_","_","_","_","_","_",5,"x","x","x","x",5,"x",5,"_","_","_",3,5,7,5,"/",7,"\\",5,3,"_"],[".","_","_","_","_","_","_","_","_","_","_","_","_","_","_","_",5,"_","_","_","_","_","_","_","_","_","_",3,"_","_","_","_","_","_","_","_","_","_","_"],[".","_","_","_","_","_","_","_","_","_","_","_","_","_","_","_","_","_","_","_","_","_","_","_","_","_","_","_","_","_","_","_","_","_","_","_","_","_","_"]],[[".","_","_","_","_","_","_","_","_","_","_","_","_","_","_","_","_","_","_","_","_","_","_","_","_","_","_","_","_","_","_","_","_",2,"/",4,4,"/",5,5,4,"_","_","_","_","_","_","_","_","_"],[3,"x","x","x","x",3,"_",3,"h",5,"_",2,"x","x","x","x",2,"_",7,"_","_","_","_","_","_","_","_","_","_","_","_","_",2,"_","_","_","_","_","_","_","_",7,5,4,"/",3,"_","_",3,"_"],[".","_","_","_","_","_","_","_","_","_","_","_","_","_","_","_","_","_","_",5,"x","x","x","x",5,"_","_","_","_",2,"h",3,"_","_","_","_","_","_","_","_","_","_","_","_","_","_",5,3,"_","_"],[".","_","_","_","_","_","_","_","_","_","_","_","_","_","_","_","_",5,"_","_","_","_","_","_","_","_","_","_",5,"_","_","_","_","_","_","_","_","_","_","_","_","_","_","_","_","_","_","_","_","_"],[".","_","_","_","_","_","_","_","_","_","_","_","_","_","_","_","_","_","_","_","_","_","_","_","_","_","_","_","_","_","_","_","_","_","_","_","_","_","_","_","_","_","_","_","_","_","_","_","_","_"]],[[".","_","_","_","_","_","_","_","_","_","_","_","_","_","_","_","_","_","_","_","_","_","_","_","_","_","_","_","_","_","_","_","_","_","_","_","_",5,"_","_",7],[3,"x","x","x",3,"_","x",3,"_","x",3,2,"_","x","x","x","x",2,"_",7,"_","_","_","_","_","_","_","_","_","_","_","_","_","_","_","_","_","_","_","_","_"],[".","_","_","_","_","_","_","_","_","_","_","_","_","_","_","_","_","_","_","_",5,"x","x","x","x",5,"_","x",5,"_","_",3,"x","x","x","x",3,"_","_",5,"_"],[".","_","_","_","_","_","_","_","_","_","_","_","_","_","_","_","_","_",5,"_","_","_","_","_","_","_","_","_","_","_",3,"_","_","_","_","_","_","_","_","_","_"],[".","_","_","_","_","_","_","_","_","_","_","_","_","_","_","_","_","_","_","_","_","_","_","_","_","_","_","_","_","_","_","_","_","_","_","_","_","_","_","_","_"]],[[".","_","_","_"],["_",3,"_","_"],[3,"_","_","_"],[".","_","_","_"],[".","_","_","_"]]],"numberofstrings":5,"notes":["G","D","A","E","B"],"capo":0,"stringnotes":["G2","D2","A1","E1","B0"],"comments":["Stave 1:","Stave 2:","0:40","Stave 4:","Stave 5:","1:11","Stave 7:","Stave 8:","Stave 9:","Stave 10:"],"timing":[["W","W","W","W","W","W","W","W","W","W","W","W","W","W","W","W","W","W","W","W","W","W","W","W","W","W","W","W","W","W","W","W","W","W","W","W","W","W","W","W","W","W","W","W","W"],["W","W","W","W","W","W","W","W","W","W","W","W","W","W","W","W","W","W","W","W","W","W","W","W","W","W","W","W","W","W","W","W","W","W","W","W","W","W","W","W","W","W","W","W","W","W"],["W","W","W","W","W","W","W","W","W","W","W","W","W","W","W","W","W","W","W","W","W","W","W","W","W","W","W","W","W","W","W","W","W","W","W","W","W","W","W","W"],["W","W","W","W","W","W","W","W","W","W","W","W","W","W","W","W","W","W","W","W","W","W","W","W","W","W","W","W","W","W","W","W","W","W","W","W","W","W","W","W","W","W","W","W","W","W","W","W"],["W","W","W","W","W","W","W","W","W","W","W","W","W","W","W","W","W","W","W","W","W","W","W","W","W","W","W","W","W","W","W","W","W","W","W","W","W","W","W","W","W","W","W","W","W","W"],["W","W","W","W","W","W","W","W","W","W","W","W","W","W","W","W","W","W","W","W","W","W","W","W","W","W","W","W","W","W","W","W","W","W","W","W","W","W","W","W","W","W","W","W","W","W","W","W","W","W","W","W","W"],["W","W","W","W","W","W","W","W","W","W","W","W","W","W","W","W","W","W","W","W","W","W","W","W","W","W","W","W","W","W","W","W","W","W","W","W","W","W","W","W"],["W","W","W","W","W","W","W","W","W","W","W","W","W","W","W","W","W","W","W","W","W","W","W","W","W","W","W","W","W","W","W","W","W","W","W","W","W","W","W","W","W","W","W","W","W","W","W","W","W","W"],["W","W","W","W","W","W","W","W","W","W","W","W","W","W","W","W","W","W","W","W","W","W","W","W","W","W","W","W","W","W","W","W","W","W","W","W","W","W","W","W","W","W"],["W","W","W","W"]],"timingvisible":false,"tabcounter":50,"stave":7,"totalstaves":10,"instrument":"5bass","selectedtuning":"5bass","version":"13"}

Member for

1 year 1 month
Submitted by zhengg23 on Wed, 2021-07-07 23:22