Sound will begin in 5 seconds

FacetheSoulkeeperBASS

01234567891011121314151617181920212223
E
B
G
D
A
E
B
0 1 2 3 4 5 6 7 8 9 10 11 12 13 14 15 16 17 18 19 20 21 22 23
Song Science #1: How Pros Use 6 Chords to Write Hit Songs
(/) Slide Up  (\) Slide Down  (h) Hammer On  (p) Pull Off  (b) Bend (r) Release (v) Vibrato

Stave 1:

G|--------------------------------------------------------------------------
D|--------------------------------------------------------------------------
A|--0--0--0--0--0--0--0--0--0--0--0--0--0--0--0--0--0--0--0--0--0--0--0--0--
E|--------------------------------------------------------------------------

Stave 2:

G|--------------------------------------------------------------------
D|--0--0--0--0--0--0--0--0--0--0--0--0--9--9--9--9--9-----------------
A|-----------------------------------------------------0--0--0--0--0--
E|--------------------------------------------------------------------

Stave 3:

G|--------------------------------------------------------------------------
D|--------------------------------------------------------------------------
A|--0--0--0--0--0--0--0--0--0--0--0--0--0--0--0--0--0--0--0--0--0--0--0--0--
E|--------------------------------------------------------------------------

Stave 4:

G|----------------------------------------------
D|--0--0--0--0--0--0--0--0--0--0--0--0--10--12--
A|----------------------------------------------
E|----------------------------------------------

Stave 5:

G|-----------------------------------------------------------
D|-----------------------------------------------------------
A|--0--0--0--0--0--0--0--0--0--0--0--0--0--0--0--3--0--0--0--
E|-----------------------------------------------------------

Stave 6:

G|-----------------------------------------------------------------------
D|-----------------------------------------------------------------------
A|--0--0--0--0--0--0--0--0--0--0--0--0--0--0--0--8--8--8--8--5--5--5--5--
E|-----------------------------------------------------------------------

Stave 7:

G|-----------------------------------------------------------------
D|-----------------------------------------------------------------
A|--0--0--0--0--0--0--0--0--0--0--0--0--0--0--0--0--0--3--0--2--0--
E|-----------------------------------------------------------------

Stave 8:

G|-----------------------------------------------------------------------------
D|-----------------------------------------------------------------------------
A|--0--0--0--0--0--0--0--0--0--0--0--0--0--0--0--0--0--8--8--8--8--5--5--5--5--
E|-----------------------------------------------------------------------------

Stave 9:

G|--------------------------------------------------------------------------------------------------
D|--------------------------------------------------------------------------------------------------
A|--0--0--0--0--0--0--0--0--0--0--0--0--0--0--0--0--5--5--5--5--5--5--5--5--8--8--8--8--8--8--8--8--
E|--------------------------------------------------------------------------------------------------

Stave 10:

G|--------------------
D|--------------------
A|--3--0--2--0--3--0--
E|--------------------

Stave 11:

G|--------------------------------------------------------------------------
D|--------------------------------------------------------------------------
A|--------------------------------------------------7--7--5--7--5--7--5--5--
E|--0--0--0--0--0--0--0--0--0--0--0--0--0--0--0--0--------------------------

Stave 12:

G|--------------------------------------------------------------------------------------
D|--------------------------------------------------------------------------------------
A|--------------------------------------------------------------------------------5--5--
E|--0--0--0--0--0--0--0--0--0--0--0--0--0--0--0--0--0--0--0--0--0--0--0--0--0--0--------

Stave 13:

G|--------------------------------------------------------------------
D|--------------------------------------------------------------------
A|--------------------------------------------------------------------
E|-----0--0--0--0--0--0--0--0--0--0--0--0--0--0--0--0--0--0--0--0--0--

http://www.guitartabcreator.com
Guitar Tab Creator is intended to store guitar tab created through the tool. It currently does not support in-line text editing. Any text you place in here will be lost. If you need to comment on your tab, please use the "Tab Notes" section located below.