Sound will begin in 5 seconds

Face the Soulkeeper

Chords
01234567891011121314151617181920212223
E
B
G
D
A
E
B
0 1 2 3 4 5 6 7 8 9 10 11 12 13 14 15 16 17 18 19 20 21 22 23
Song Science #1: How Pros Use 6 Chords to Write Hit Songs
(/) Slide Up  (\) Slide Down  (h) Hammer On  (p) Pull Off  (b) Bend (r) Release (v) Vibrato

Stave 1:

E|-----12--12--12--12-----12--12--12--12--12--12-----12--12--12--12-----12--12--12--12--12--12--
B|-----10--10--10--10-----10--10--10--10--10--10-----10--10--10--10-----10--10--10--10--10--10--
G|-----9---9---9---9------9---9---9---9---9---9------10--10--10--10-----10--10--10--10--10--10--
D|-----7---7---7---7------7---7---7---7---7---7------7---7---7---7------7---7---7---7---7---7---
A|--0------------------0--------------------------0------------------0--------------------------
E|----------------------------------------------------------------------------------------------

Stave 2:

E|-----10--10--10--10-----10--------------10----------------------------------------------
B|-----10--10--10--10---------10------10------10------12--12--12--12--10--10--10--10--10--
G|-----10--10--10--10-------------10------------------12--12--12--12--9---9---9---9---9---
D|--0------------------0--------------------------12--------------------------------------
A|----------------------------------------------------------------------------------------
E|----------------------------------------------------------------------------------------

Stave 3:

E|-----12--12--12--12-----12--12--12--12--12--12-----12--12--12--12-----12--12--12--12--12--12--
B|-----10--10--10--10-----10--10--10--10--10--10-----10--10--10--10-----10--10--10--10--10--10--
G|-----9---9---9---9------9---9---9---9---9---9------10--10--10--10-----10--10--10--10--10--10--
D|-----7---7---7---7------7---7---7---7---7---7------7---7---7---7------7---7---7---7---7---7---
A|--0------------------0--------------------------0------------------0--------------------------
E|----------------------------------------------------------------------------------------------

Stave 4:

E|------------------------10--------------10----------------------------------------------
B|-----10--10--10--10---------10------10------10------10--10--10--10------12--12--12--12--
G|-----10--10--10--10-------------10------------------10--10--10--10------12--12--12--12--
D|--0------------------0--------------------------10------------------12------------------
A|----------------------------------------------------------------------------------------
E|----------------------------------------------------------------------------------------

Stave 5:

E|-----------------------------------------------------------
B|-----------------------------------------------------------
G|-----5--5--5--5-----5--5--5--4-----5--5--5--5--2--2--2--2--
D|-----7--7--7--7-----7--7--7--7-----7--7--7--7--3--2--2--2--
A|--0--------------0--------------0--------------3--0--0--0--
E|-----------------------------------------------------------

Stave 6:

E|-----------------------------------------------------
B|-----------------------------------------------------
G|-----5--5--5--5--5--5--5--5--4-----5--5--2--2--1--2--
D|-----7--7--7--7--7--7--7--7--7-----7--7--3--2--2--2--
A|--0--------------0--------------0--------3--0--2--0--
E|-----------------------------------------------------

Stave 7:

E|---------------------------------------------------------------------------
B|---------------------------------------------------------------------------
G|-----5--5--5--5-----5--5--5--5--4-----5--5--5--9---9---9---9---4--4--4--4--
D|-----7--7--7--7-----7--7--7--7--7-----7--7--7--10--10--10--10--5--5--5--5--
A|---------------------------------------------------------------------------
E|--0--------------0-----------------0---------------------------------------

Stave 8:

E|------------------------------------------------------------------------------------
B|------------------------------------------------------------------------------------
G|--5--5--5--5--5--5--5--5--7--7--7--7--7--7--7--7--9---9---9---9---3--2--2--3--3--2--
D|--7--7--7--7--7--7--7--7--9--9--9--9--9--9--9--9--10--10--10--10--4--2--3--3--4--2--
A|------------------------------------------------------------------4--0--3--0--4--0--
E|------------------------------------------------------------------------------------

Stave 9:

E|--------------------------------------------------------------------------
B|--------------------------------------------------------------------------
G|--------------------------------------------------------------------------
D|--5--5--------5--5--------5--5--------5--5--------9--5--7--5--7--5--4--7--
A|--7--7--------7--7--------7--7--------7--7--------7--7--5--7--5--7--5--5--
E|--------0--0--------0--0--------0--0--------0--0--------------------------

Stave 10:

E|--------------------------------------------------------------------------
B|--------------------------------------------------------------------------
G|--------------------------------------------------------------------------
D|--5--5--------5--5--------5--5--------5--5--------9--5--7--5--7--4--4--4--
A|--7--7--------7--7--------7--7--------7--7--------7--7--5--7--5--5--5--5--
E|--------0--0--------0--0--------0--0--------0--0--------------------------

Stave 11:

E|-----------------------------------------------------------------------------------
B|-----------------------------------------------------------------------------------
G|-----------------------------------------------------------------------------------
D|--------5--------5--7--5--4--5--7--5--4--5--------5--------7--5--4--5--7--5--4--4--
A|--------7--------7--8--7--5--7--8--7--5--7--------7--------8--7--5--7--8--7--5--5--
E|--0--0-----0--0-----------------------------0--0-----0--0--------------------------

Stave 12:

E|--
B|--
G|--
D|--
A|--
E|--

http://www.guitartabcreator.com
Guitar Tab Creator is intended to store guitar tab created through the tool. It currently does not support in-line text editing. Any text you place in here will be lost. If you need to comment on your tab, please use the "Tab Notes" section located below.