Silenced Anigma

Chords

01234567891011121314151617181920212223
E
B
G
D
A
E
B
0 1 2 3 4 5 6 7 8 9 10 11 12 13 14 15 16 17 18 19 20 21 22 23
(/) Slide Up  (\) Slide Down  (h) Hammer On  (p) Pull Off  (b) Bend (r) Release (v) Vibrato

Intro:

D|------------------------------------------------------------------------------------------
A|------------------------------------------------------------------------------------------
F|------------------------------------------------------------------------------------------
C|--------------7v---------------------------------------------7v---------------------------
G|-----8p7----------8--7-----5--5/7\5p0-----10--------8p7----------8--7------------------3--
C|--0-------10------------------------------10-----0-------10---------------5--5/7/5-----3--



D|--------------------------
A|--------------------------
F|--------------------------
C|--------------------------
G|---------3v-----3--2--0v--
C|--0h2h3---------3--2--0---

Melody: 2xs

D|-----------------------------|------------------------------------------------
A|-----------------------------|------------------------------------------------
F|-----------------------10\9--|-----------------------9-----9/10-9-----10/12---
C|-----------------------8--7--|-----------------------7-----7-8--7-----7--10---
G|-----------------------0--0--|-----------------------0-----0-0-\0-----0--0-v--
C|--0-----0--0--0--0-----------|--0-----0--0--0--0------------------------------

Verse: 2xs

D|-------------------------------|---------------------------------------------------
A|-------------------------------|---------------------------------------------------
F|-------------------------------|---------------------------------------------------
C|-----------------------3--2p0--|-----------------------3--2p0-----2--2h3p2-----/3--
G|-----------------------1--0----|-----------------------1--0-------0--0----------1--
C|--0-----0--0--0--0-----0--0----|--0-----0--0--0--0-----0--0-------0--0----------0--

Pre Chorus: 2xs

D|-----------------------------------------------------------------------------
A|-----------------------------------------------------------------------------
F|--------10--------7v---------------------------------------------------------
C|--------10--------7------------10-----10/12--12----------------------8--7h8--
G|--------8----------------------10-----10-12--12-----------5-----5h6----------
C|--0--0---------0---------0--0--10--0--10-12--12-----0--0-----0---------------

Melody: 2xs

D|-----------------------------|------------------------------------------------
A|-----------------------------|------------------------------------------------
F|-----------------------10\9--|-----------------------9-----9/10-9-----10/12---
C|-----------------------8--7--|-----------------------7-----7-8--7-----7--10---
G|-----------------------0--0--|-----------------------0-----0-0-\0-----0--0-v--
C|--0-----0--0--0--0-----------|--0-----0--0--0--0------------------------------

Verse: 2xs

D|-------------------------------|---------------------------------------------------
A|-------------------------------|---------------------------------------------------
F|-------------------------------|---------------------------------------------------
C|-----------------------3--2p0--|-----------------------3--2p0-----2--2h3p2-----/3--
G|-----------------------1--0----|-----------------------1--0-------0--0----------1--
C|--0-----0--0--0--0-----0--0----|--0-----0--0--0--0-----0--0-------0--0----------0--

Pre Chorus: 2xs

D|-----------------------------------------------------------------------------
A|-----------------------------------------------------------------------------
F|--------10--------7v---------------------------------------------------------
C|--------10--------7------------10-----10/12--12----------------------8--7h8--
G|--------8----------------------10-----10-12--12-----------5-----5h6----------
C|--0--0---------0---------0--0--10--0--10-12--12-----0--0-----0---------------


Bridge: 5xs

D|---------------------------------------------|--------------------|--
A|---------------------------------------------|--------------------|--
F|---------------------------------------------|--------------------|--
C|------------------------8p0-----7p0----------|--------8p0-----7v--|--
G|--8p0-----7p0--------------------------------|--------------------|--
C|-------0-------0--10p0-------0-------0--3p0--|--10p0-------0------|--

Bridge: Fast 

D|-------------------------------------------------------------------------------------------------------------------------
A|---------------------------------------------------------------------------10--------8--------6--------6--------6h8--8v--
F|--------10--------9--------7--------5--5--------5--------5h7--7v-----7--7------7--7-----7--7-----7--7-----7--7-----------
C|--7--7------7--7-----7--7-----7--7--------7--------7---------------------------------------------------------------------
G|---------------------------------------------0--------0------------------------------------------------------------------
C|-------------------------------------------------------------------------------------------------------------------------

D|----------13----------12----------10----------8---------8---------8h10--10v-----
A|--10--10------10--10------10--10------10--10-----10--------10-------------------
F|--------------------------------------------------------------------------------
C|--------------------------------------------------------------------------------
G|-----------------------------------------------------0---------0----------------
C|--------------------------------------------------------------------------------



D|----------17----------15----------13----------13----------13h15--15v--
A|--15--15------15--15------15--15------15----------15------------------
F|------------------------------------------14----------14--------------
C|----------------------------------------------------------------------
G|----------------------------------------------------------------------
C|----------------------------------------------------------------------

Chorus:

D|----------------------------------------------------------------------|-----------------------------------
A|----------------------------------------------------------------------|-----------------------------------
F|----------------------------------------------------------------------|-----------------------------------
C|--------10b12--------8v--7--7/8-7-----3--------3--------3h5--3b5------|--------10b12-----8v--7--7/8-7-----
G|-----8------------6------5--5-6-5--------5--------5---------------5v--|-----8----------------5--5-6-5-----
C|--0------------0---------0--0-0\0-----------0--------0----------------|--0------------0------0--0-0\0-----



D|-------------------------------------|-------------------------------------
A|-------------------------------------|-------------------------------------
F|-------------------------------------|-------------------------------------
C|---------3--------3h5--3b5-----------|--------0--------0--------0h1-----0--
G|---5--------5---------------5--3/5v--|-----3-----3--------3----------------
C|--r---0--------0---------------------|--0-----------0--------0-------------

Melody: 2xs

D|-----------------------------|------------------------------------------------
A|-----------------------------|------------------------------------------------
F|-----------------------10\9--|-----------------------9-----9/10-9-----10/12---
C|-----------------------8--7--|-----------------------7-----7-8--7-----7--10---
G|-----------------------0--0--|-----------------------0-----0-0-\0-----0--0-v--
C|--0-----0--0--0--0-----------|--0-----0--0--0--0------------------------------

Verse: 2xs

D|-------------------------------|---------------------------------------------------
A|-------------------------------|---------------------------------------------------
F|-------------------------------|---------------------------------------------------
C|-----------------------3--2p0--|-----------------------3--2p0-----2--2h3p2-----/3--
G|-----------------------1--0----|-----------------------1--0-------0--0----------1--
C|--0-----0--0--0--0-----0--0----|--0-----0--0--0--0-----0--0-------0--0----------0--

Pre Chorus: 2xs

D|-----------------------------------------------------------------------------
A|-----------------------------------------------------------------------------
F|--------10--------7v---------------------------------------------------------
C|--------10--------7------------10-----10/12--12----------------------8--7h8--
G|--------8----------------------10-----10-12--12-----------5-----5h6----------
C|--0--0---------0---------0--0--10--0--10-12--12-----0--0-----0---------------

Chorus:

D|----------------------------------------------------------------------|-----------------------------------
A|----------------------------------------------------------------------|-----------------------------------
F|----------------------------------------------------------------------|-----------------------------------
C|--------10b12--------8v--7--7/8-7-----3--------3--------3h5--3b5------|--------10b12-----8v--7--7/8-7-----
G|-----8------------6------5--5-6-5--------5--------5---------------5v--|-----8----------------5--5-6-5-----
C|--0------------0---------0--0-0\0-----------0--------0----------------|--0------------0------0--0-0\0-----



D|-------------------------------------|-------------------------------------
A|-------------------------------------|-------------------------------------
F|-------------------------------------|-------------------------------------
C|---------3--------3h5--3b5-----------|--------0--------0--------0h1-----0--
G|---5--------5---------------5--3/5v--|-----3-----3--------3----------------
C|--r---0--------0---------------------|--0-----------0--------0-------------






							http://www.guitartabcreator.com
genre
Instruments
{"strings":[[[".",".",".",".",".",".",".",".",".","_",".",".",".",".",".",".",".",".","_",".","_",".",".",".",".",".",".",".",".",".","_",".",".",".",".",".",".","_","."],[".",".",".",".",".",".",".",".",".","_",".",".",".",".",".",".",".",".","_",".","_",".",".",".",".",".",".",".",".",".","_",".",".",".",".",".",".","_","."],[".",".",".",".",".",".",".",".",".","_",".",".",".",".",".",".",".",".","_",".","_",".",".",".",".",".",".",".",".",".","_",".",".",".",".",".",".","_","."],[".",".",".",".",".",7,"v",".",".","_",".",".",".",".",".",".",".",".","_",".","_",".",".",".",".",".",7,"v",".",".","_",".",".",".",".",".",".","_","."],[".",8,"p",7,".",".",".",8,7,"_",5,5,"/",7,"\\",5,"p",0,"_",10,"_",".",8,"p",7,".",".",".",8,7,"_",".",".",".",".",".",".","_",3],[0,".",".",".",10,".",".",".",".","_",".",".",".",".",".",".",".",".","_",10,"_",0,".",".",".",10,".",".",".",".","_",5,5,"/",7,"/",5,"_",3]],[[".",".",".",".",".",".",".","_",".",".",".","."],[".",".",".",".",".",".",".","_",".",".",".","."],[".",".",".",".",".",".",".","_",".",".",".","."],[".",".",".",".",".",".",".","_",".",".",".","."],[".",".",".",".",".",3,"v","_",3,2,0,"v"],[0,"h",2,"h",3,".",".","_",3,2,0,"."]],[[".","_",".",".",".",".","_",".",".",".","|",".","_",".",".",".",".","_",".","_",".",".",".",".",".","_",".",".",".","."],[".","_",".",".",".",".","_",".",".",".","|",".","_",".",".",".",".","_",".","_",".",".",".",".",".","_",".",".",".","."],[".","_",".",".",".",".","_",10,"\\",9,"|",".","_",".",".",".",".","_",9,"_",9,"/",10,".",9,"_",10,"/",12,"."],[".","_",".",".",".",".","_",8,".",7,"|",".","_",".",".",".",".","_",7,"_",7,".",8,".",7,"_",7,".",10,"."],[".","_",".",".",".",".","_",0,".",0,"|",".","_",".",".",".",".","_",0,"_",0,".",0,"\\",0,"_",0,".",0,"v"],[0,"_",0,0,0,0,"_",".",".",".","|",0,"_",0,0,0,0,"_",".","_",".",".",".",".",".","_",".",".",".","."]],[[".","_",".",".",".",".","_",".",".",".",".","|",".","_",".",".",".",".","_",".",".",".",".","_",".",".",".",".",".",".","_",".","."],[".","_",".",".",".",".","_",".",".",".",".","|",".","_",".",".",".",".","_",".",".",".",".","_",".",".",".",".",".",".","_",".","."],[".","_",".",".",".",".","_",".",".",".",".","|",".","_",".",".",".",".","_",".",".",".",".","_",".",".",".",".",".",".","_",".","."],[".","_",".",".",".",".","_",3,2,"p",0,"|",".","_",".",".",".",".","_",3,2,"p",0,"_",2,2,"h",3,"p",2,"_","/",3],[".","_",".",".",".",".","_",1,0,".",".","|",".","_",".",".",".",".","_",1,0,".",".","_",0,0,".",".",".",".","_",".",1],[0,"_",0,0,0,0,"_",0,0,".",".","|",0,"_",0,0,0,0,"_",0,0,".",".","_",0,0,".",".",".",".","_",".",0]],[[".",".",".","_",".",".",".","_",".",".",".",".",".",".",".",".","_",".",".",".",".",".",".",".",".",".",".","."],[".",".",".","_",".",".",".","_",".",".",".",".",".",".",".",".","_",".",".",".",".",".",".",".",".",".",".","."],[".",".",10,"_",".",7,"v","_",".",".",".",".",".",".",".",".","_",".",".",".",".",".",".",".",".",".",".","."],[".",".",10,"_",".",7,".","_",".",".",10,".",10,"/",12,12,"_",".",".",".",".",".",".",".",8,7,"h",8],[".",".",8,"_",".",".",".","_",".",".",10,".",10,".",12,12,"_",".",".",5,".",5,"h",6,".",".",".","."],[0,0,".","_",0,".",".","_",0,0,10,0,10,".",12,12,"_",0,0,".",0,".",".",".",".",".",".","."]],[[".",".",".",".",".",".",".",".",".",".",".",".",".",".",".",".",".",".",".",".",".",".","|",".",".",".",".",".",".",".",".",".","|"],[".",".",".",".",".",".",".",".",".",".",".",".",".",".",".",".",".",".",".",".",".",".","|",".",".",".",".",".",".",".",".",".","|"],[".",".",".",".",".",".",".",".",".",".",".",".",".",".",".",".",".",".",".",".",".",".","|",".",".",".",".",".",".",".",".",".","|"],[".",".",".",".",".",".",".",".",".",".",".",8,"p",0,".",7,"p",0,".",".",".",".","|",".",".",".",8,"p",0,".",7,"v","|"],[8,"p",0,".",7,"p",0,".",".",".",".",".",".",".",".",".",".",".",".",".",".",".","|",".",".",".",".",".",".",".",".",".","|"],[".",".",".",0,".",".",".",0,10,"p",0,".",".",".",0,".",".",".",0,3,"p",0,"|",10,"p",0,".",".",".",0,".",".","|"]],[[".",".",".",".",".",".",".",".",".",".",".",".",".",".",".",".",".",".",".",".",".",".",".","_",".",".",".",".",".",".",".",".",".",".",".",".",".",".",".",".",".",".","."],[".",".",".",".",".",".",".",".",".",".",".",".",".",".",".",".",".",".",".",".",".",".",".","_",".",".",10,".",".",8,".",".",6,".",".",6,".",".",6,"h",8,8,"v"],[".",".",10,".",".",9,".",".",7,".",".",5,5,".",".",5,".",".",5,"h",7,7,"v","_",7,7,".",7,7,".",7,7,".",7,7,".",7,7,".",".",".",".","."],[7,7,".",7,7,".",7,7,".",7,7,".",".",7,".",".",7,".",".",".",".",".",".","_",".",".",".",".",".",".",".",".",".",".",".",".",".",".",".",".",".",".","."],[".",".",".",".",".",".",".",".",".",".",".",".",".",".",0,".",".",0,".",".",".",".",".","_",".",".",".",".",".",".",".",".",".",".",".",".",".",".",".",".",".",".","."],[".",".",".",".",".",".",".",".",".",".",".",".",".",".",".",".",".",".",".",".",".",".",".","_",".",".",".",".",".",".",".",".",".",".",".",".",".",".",".",".",".",".","."]],[[".",".",".",".",".",".",".",".",".",".",".",".",".",".",".","_",".",".",".",".",".",".",".",".",".",".",".",".",".",".","|",".",".",".",".",".",".",".",".",".",".",".",".",".",".","_"],[".",".",".",".",".",".",".",".",".",".",".",".",".",".",".","_",".",".",".",".",".",".",".",".",".",".",".",".",".",".","|",".",".",".",".",".",".",".",".",".",".",".",".",".",".","_"],[".",".",".",".",".",".",".",".",".",".",".",".",".",".",".","_",".",".",".",".",".",".",".",".",".",".",".",".",".",".","|",".",".",".",".",".",".",".",".",".",".",".",".",".",".","_"],[".",".",10,"b",12,".",".",8,"v",7,7,"/",8,".",7,"_",3,".",".",3,".",".",3,"h",5,3,"b",5,".",".","|",".",".",10,"b",12,".",8,"v",7,7,"/",8,".",7,"_"],[".",8,".",".",".",".",6,".",".",5,5,".",6,".",5,"_",".",5,".",".",5,".",".",".",".",".",".",".",5,"v","|",".",8,".",".",".",".",".",".",5,5,".",6,".",5,"_"],[0,".",".",".",".",0,".",".",".",0,0,".",0,"\\",0,"_",".",".",0,".",".",0,".",".",".",".",".",".",".",".","|",0,".",".",".",".",0,".",".",0,0,".",0,"\\",0,"_"]],[[".",".",".",".",".",".",".",".",".",".",".",".",".",".",".",".",".","|",".",".",".",".",".",".",".",".",".",".",".","_","."],[".",".",".",".",".",".",".",".",".",".",".",".",".",".",".",".",".","|",".",".",".",".",".",".",".",".",".",".",".","_","."],[".",".",".",".",".",".",".",".",".",".",".",".",".",".",".",".",".","|",".",".",".",".",".",".",".",".",".",".",".","_","."],[3,".",".",3,".",".",3,"h",5,3,"b",5,".",".",".",".",".","|",".",".",0,".",".",0,".",".",0,"h",1,"_",0],[".",5,".",".",5,".",".",".",".",".",".",".",5,3,"/",5,"v","|",".",3,".",3,".",".",3,".",".",".",".","_","."],["r",".",0,".",".",0,".",".",".",".",".",".",".",".",".",".",".","|",0,".",".",".",0,".",".",0,".",".",".","_","."]],[[".",".",13,".",".",12,".",".",10,".",".",8,".",".",8,".",".",8,"h",10,10,"v","_"],[10,10,".",10,10,".",10,10,".",10,10,".",10,".",".",10,".",".",".",".",".",".","_"],[".",".",".",".",".",".",".",".",".",".",".",".",".",".",".",".",".",".",".",".",".",".","_"],[".",".",".",".",".",".",".",".",".",".",".",".",".",".",".",".",".",".",".",".",".",".","_"],[".",".",".",".",".",".",".",".",".",".",".",".",".",0,".",".",0,".",".",".",".",".","_"],[".",".",".",".",".",".",".",".",".",".",".",".",".",".",".",".",".",".",".",".",".",".","_"]],[[".",".",17,".",".",15,".",".",13,".",".",13,".",".",13,"h",15,15,"v"],[15,15,".",15,15,".",15,15,".",15,".",".",15,".",".",".",".",".","."],[".",".",".",".",".",".",".",".",".",".",14,".",".",14,".",".",".",".","."],[".",".",".",".",".",".",".",".",".",".",".",".",".",".",".",".",".",".","."],[".",".",".",".",".",".",".",".",".",".",".",".",".",".",".",".",".",".","."],[".",".",".",".",".",".",".",".",".",".",".",".",".",".",".",".",".",".","."]]],"numberofstrings":6,"notes":["D","A","F","C","G","C"],"capo":0,"stringnotes":["D3","A2","F2","C2","G1","C1"],"comments":["Intro:","","Melody: 2xs","Verse: 2xs","Pre Chorus: 2xs","Bridge: 5xs","Bridge: Fast ","Chorus:","","",""],"timing":[["W","W",null,"W","W","W",null,"W","W",null,"W","W",null,"W",null,"W",null,"W","W","W","W","W","W",null,"W","W","W",null,"W","W",null,"W","W",null,"W",null,"W",null,"W"],["W","W","W",null,"W","W",null,null,"W","W","W"],["W",null,"W","W","W","W","W","W",null,"W",null,"W",null,"W","W","W","W",null,"W","W","W",null,"W","W","W",null,"W",null,"W"],["W","W","W","W","W","W",null,"W","W",null,"W",null,"W",null,"W","W","W","W",null,"W","W",null,"W",null,"W","W",null,"W",null,"W",null,null,"W"],["W","W","W","W","W","W",null,null,"W","W","W","W","W",null,"W","W",null,"W","W","W","W","W",null,"W","W","W",null,"W"],["W",null,"W","W","W",null,"W","W","W","W","W","W",null,"W","W","W",null,"W","W","W",null,"W",null,"W",null,"W","W",null,"W","W","W"],["W","W","W","W","W","W","W","W","W","W","W","W","W","W","W","W","W","W","W",null,"W","W","W","W","W","W","W","W","W","W","W","W","W","W","W","W","W","W","W",null,"W","W"],["W","W","W",null,"W","W","W","W",null,"W","W",null,"W",null,"W","W","W","W","W","W","W","W","W",null,"W","W",null,"W","W",null,null,"W","W","W",null,"W","W","W","W","W","W","W","W",null,"W",null,"W","W","W","W","W"],["W","W","W","W","W","W","W",null,"W","W",null,"W","W","W",null,"W",null,null,"W","W","W","W","W","W","W","W","W",null,"W",null,"W"],["W","W","W","W","W","W","W","W","W","W","W","W","W","W","W","W","W","W",null,"W","W",null,null,"W","W","W","W","W","W","W","W","W","W","W","W","W","W","W",null,"W"],["W","W","W","W","W","W","W","W","W","W","W","W","W","W","W",null,"W","W"]],"timingvisible":false,"tabcounter":19,"stave":8,"totalstaves":11,"instrument":"6guitar","selectedtuning":"Drop C","version":"13"}

Member for

1 month 3 weeks
Picture
Submitted by Zenith_Music69 on Sun, 2020-10-11 08:34