Sound will begin in 5 seconds

Ezio's Family

01234567891011121314151617181920212223
E
B
G
D
A
E
B
0 1 2 3 4 5 6 7 8 9 10 11 12 13 14 15 16 17 18 19 20 21 22 23
Song Science #1: How Pros Use 6 Chords to Write Hit Songs
(/) Slide Up  (\) Slide Down  (h) Hammer On  (p) Pull Off  (b) Bend (r) Release (v) Vibrato

Stave 1:

E|------------------------------------------------------------------------------------------------------------------
B|-----10--8--10-----10--8--10-----10--8--10-----10--8--10-----10--8--10-----10--8--10-----10--8--10-----10--8--10--
G|--7-------------7-------------7-------------7-------------7-------------7-------------7-------------7-------------
D|------------------------------------------------------------------------------------------------------------------
A|------------------------------------------------------------------------------------------------------------------
E|------------------------------------------------------------------------------------------------------------------

Stave 2:

E|-----------------------------------------------------------------------------
B|-----6--8--10-----6--8--6-----6--8--10-----6--8--6-----6--8--10-----6--8--6--
G|--7------------7-----------7------------7-----------7------------7-----------
D|-----------------------------------------------------------------------------
A|-----------------------------------------------------------------------------
E|-----------------------------------------------------------------------------

Stave 3:

E|---------------10--12--13--15--17--
B|-----6--8--10----------------------
G|--7--------------------------------
D|-----------------------------------
A|-----------------------------------
E|-----------------------------------

Stave 4:

E|--5--10--10--5--5--6--5--------------------------
B|-------------------------8--10--8--10--6--8--10--
G|-------------------------------------------------
D|-------------------------------------------------
A|-------------------------------------------------
E|-------------------------------------------------

Stave 5:

E|----------------------
B|--11--10--11--10------
G|----------------------
D|------------------12--
A|----------------------
E|----------------------

Stave 6:

E|------10----------13--10--10-------------
B|--10------10--11--------------10---------
G|----------------------------------10--9--
D|-----------------------------------------
A|-----------------------------------------
E|-----------------------------------------

Stave 7:

E|--5--6--5--5--6--1\5--5--6--1\5--5--6--5--5--6--10--13--
B|--------------------------------------------------------
G|--------------------------------------------------------
D|--------------------------------------------------------
A|--------------------------------------------------------
E|--------------------------------------------------------

Stave 8:

E|---------------10--12--13--15--17--
B|-----6--8--10----------------------
G|--7--------------------------------
D|-----------------------------------
A|-----------------------------------
E|-----------------------------------

http://www.guitartabcreator.com
Guitar Tab Creator is intended to store guitar tab created through the tool. It currently does not support in-line text editing. Any text you place in here will be lost. If you need to comment on your tab, please use the "Tab Notes" section located below.