Sound will begin in 5 seconds

Sam and shia hmong song1

01234567891011121314151617181920212223
E
B
G
D
A
E
B
0 1 2 3 4 5 6 7 8 9 10 11 12 13 14 15 16 17 18 19 20 21 22 23
Song Science #1: How Pros Use 6 Chords to Write Hit Songs
(/) Slide Up  (\) Slide Down  (h) Hammer On  (p) Pull Off  (b) Bend (r) Release (v) Vibrato

Stave 1:

E|-----------------------------------------------------------------
B|-----------------------------------------------------------------
G|-----------------------------------------------------------------
D|-------------------------5h7--5-----5----------------------------
A|--------3--5--3--5--5/7----------7-----7--5--------5--5h7--------
E|--3--5---------------------------------------8--5----------5--8--

Stave 2:

E|-----------------------------------------------------------10--12--10--------------5-----------------
B|---------------------------------------------------10--13--------------13--10--13-----8--------------
G|--------------------7b5--7--7/9--12--9------9--12----------------------------------------7--------5--
D|--------------5--7----------------------12--------------------------------------------------5--7-----
A|--------5--7-----------------------------------------------------------------------------------------
E|--5--8-----------------------------------------------------------------------------------------------

Stave 3:

E|--------15------15------15--17--15------15------10--12--12/13--12--10----------8--
B|------------13------13--------------13------13-------------------------13--10-----
G|----------------------------------------------------------------------------------
D|--5--7----------------------------------------------------------------------------
A|----------------------------------------------------------------------------------
E|----------------------------------------------------------------------------------

http://www.guitartabcreator.com
Guitar Tab Creator is intended to store guitar tab created through the tool. It currently does not support in-line text editing. Any text you place in here will be lost. If you need to comment on your tab, please use the "Tab Notes" section located below.