6/29/20 Romee: "Hero"

Chords

01234567891011121314151617181920212223
E
B
G
D
A
E
B
0 1 2 3 4 5 6 7 8 9 10 11 12 13 14 15 16 17 18 19 20 21 22 23
(/) Slide Up  (\) Slide Down  (h) Hammer On  (p) Pull Off  (b) Bend (r) Release (v) Vibrato

Stave 1:

E|--------------------------|--
B|-----1--------1--------1--|--
G|--------0--------0--------|--
D|-----------2--------2-----|--
A|--3-----------------------|--
E|--------------------------|--

Stave 2:

E|--------------------------|--
B|-----1--------1--------1--|--
G|--------2--------2--------|--
D|-----------2--------2-----|--
A|--0-----------------------|--
E|--------------------------|--

Stave 3:

E|--------------------------|--
B|-----0--------0--------0--|--
G|--------0--------0--------|--
D|--------------------------|--
A|-----------2--------2-----|--
E|--0-----------------------|--

Stave 4:

E|--------------------------|--
B|-----1--------1--------1--|--
G|--------2--------2--------|--
D|-----------3--------3-----|--
A|--3-----------------------|--
E|--------------------------|--

Stave 5:

E|--------------------------|--
B|-----0--------0--------0--|--
G|--------0--------0--------|--
D|-----------0--------0-----|--
A|--------------------------|--
E|--3-----------------------|--

							http://www.guitartabcreator.com
Instruments
{"strings":[[[".",".",".",".",".",".",".",".","|"],[".",1,".",".",1,".",".",1,"|"],[".",".",0,".",".",0,".",".","|"],[".",".",".",2,".",".",2,".","|"],[3,".",".",".",".",".",".",".","|"],[".",".",".",".",".",".",".",".","|"]],[[".",".",".",".",".",".",".",".","|"],[".",1,".",".",1,".",".",1,"|"],[".",".",2,".",".",2,".",".","|"],[".",".",".",2,".",".",2,".","|"],[0,".",".",".",".",".",".",".","|"],[".",".",".",".",".",".",".",".","|"]],[[".",".",".",".",".",".",".",".","|"],[".",0,".",".",0,".",".",0,"|"],[".",".",0,".",".",0,".",".","|"],[".",".",".",".",".",".",".",".","|"],[".",".",".",2,".",".",2,".","|"],[0,".",".",".",".",".",".",".","|"]],[[".",".",".",".",".",".",".",".","|"],[".",1,".",".",1,".",".",1,"|"],[".",".",2,".",".",2,".",".","|"],[".",".",".",3,".",".",3,".","|"],[3,".",".",".",".",".",".",".","|"],[".",".",".",".",".",".",".",".","|"]],[[".",".",".",".",".",".",".",".","|"],[".",0,".",".",0,".",".",0,"|"],[".",".",0,".",".",0,".",".","|"],[".",".",".",0,".",".",0,".","|"],[".",".",".",".",".",".",".",".","|"],[3,".",".",".",".",".",".",".","|"]]],"numberofstrings":6,"notes":["E","B","G","D","A","E","B"],"capo":0,"stringnotes":["E4","B3","G3","D3","A2","E2"],"comments":["Stave 1:","Stave 2:","Stave 3:","Stave 4:","Stave 5:"],"timing":[["W","W","W","W","W","W","W","W"],["W","W","W","W","W","W","W","W"],["W","W","W","W","W","W","W","W"],["W","W","W","W","W","W","W","W"],["W","W","W","W","W","W","W","W"]],"timingvisible":false,"tabcounter":9,"stave":4,"totalstaves":5,"instrument":"6guitar","selectedtuning":"6_standard","version":"13"}

Member for

3 months 3 weeks
Submitted by zaydebuti on Mon, 2020-06-29 16:36