2/26/21 Caleb: "Someone You Loved"

01234567891011121314151617181920212223
E
B
G
D
A
E
B
0 1 2 3 4 5 6 7 8 9 10 11 12 13 14 15 16 17 18 19 20 21 22 23
(/) Slide Up  (\) Slide Down  (h) Hammer On  (p) Pull Off  (b) Bend (r) Release (v) Vibrato

Stave 1:

E|--------------------------|--
B|--6-----4-----2-----2-----|--
G|--6-----5-----3-----3-----|--
D|--6-----6-----3-----4-----|--
A|--------------------------|--
E|--------------------------|--

Stave 2:

E|--4-----4-----1-----2-----|--
B|--6-----4-----2-----2-----|--
G|--6-----5-----3-----3-----|--
D|--6-----6-----3-----4-----|--
A|--------------------------|--
E|--------------------------|--

							http://www.guitartabcreator.com
Chords

Instruments
{"strings":[[[".","_",".","_",".","_",".","_","|"],[6,"_",4,"_",2,"_",2,"_","|"],[6,"_",5,"_",3,"_",3,"_","|"],[6,"_",6,"_",3,"_",4,"_","|"],[".","_",".","_",".","_",".","_","|"],[".","_",".","_",".","_",".","_","|"]],[[4,"_",4,"_",1,"_",2,"_","|"],[6,"_",4,"_",2,"_",2,"_","|"],[6,"_",5,"_",3,"_",3,"_","|"],[6,"_",6,"_",3,"_",4,"_","|"],[".","_",".","_",".","_",".","_","|"],[".","_",".","_",".","_",".","_","|"]]],"numberofstrings":6,"notes":["E","B","G","D","A","E","B"],"capo":0,"stringnotes":["E4","B3","G3","D3","A2","E2"],"comments":["Stave 1:","Stave 2:"],"timing":[["W",null,"W",null,"W",null,"W"],["W",null,"W",null,"W",null,"W"]],"timingvisible":false,"tabcounter":9,"stave":1,"totalstaves":2,"instrument":"6guitar","selectedtuning":"6_standard","version":"13"}

Member for

1 year
Submitted by zaydebuti on Fri, 2021-02-26 14:49