10/20/20 Darren: Breakdown

Chords

01234567891011121314151617181920212223
E
B
G
D
A
E
B
0 1 2 3 4 5 6 7 8 9 10 11 12 13 14 15 16 17 18 19 20 21 22 23
(/) Slide Up  (\) Slide Down  (h) Hammer On  (p) Pull Off  (b) Bend (r) Release (v) Vibrato

Stave 1:

E|----------------------------|--------------------------|--
B|--10--8--10--5--------5-----|--5-----------------------|--
G|-------------------------7--|--------------------------|--
D|----------------------------|-----7--------7--5--7--2--|--
A|----------------------------|--------------------------|--
E|----------------------------|--------------------------|--

Stave 2:

E|----------------------------|--------------------------|--
B|--------10--8-----------10--|--------5-----------------|--
G|--------9-------------------|--------7--7--------5-----|--
D|----------------------------|-----------------------7--|--
A|----------------------------|--------------------------|--
E|----------------------------|--------------------------|--

							http://www.guitartabcreator.com
Instruments
{"strings":[[[".",".",".",".","_","_",".",".","|",".",".","_","_",".",".",".",".","|"],[10,8,10,5,"_","_",5,".","|",5,".","_","_",".",".",".",".","|"],[".",".",".",".","_","_",".",7,"|",".",".","_","_",".",".",".",".","|"],[".",".",".",".","_","_",".",".","|",".",7,"_","_",7,5,7,2,"|"],[".",".",".",".","_","_",".",".","|",".",".","_","_",".",".",".",".","|"],[".",".",".",".","_","_",".",".","|",".",".","_","_",".",".",".",".","|"]],[["_","_",".",".","_","_","_",".","|","_","_",".",".","_","_",".",".","|"],["_","_",10,8,"_","_","_",10,"|","_","_",5,".","_","_",".",".","|"],["_","_",9,".","_","_","_",".","|","_","_",7,7,"_","_",5,".","|"],["_","_",".",".","_","_","_",".","|","_","_",".",".","_","_",".",7,"|"],["_","_",".",".","_","_","_",".","|","_","_",".",".","_","_",".",".","|"],["_","_",".",".","_","_","_",".","|","_","_",".",".","_","_",".",".","|"]]],"numberofstrings":6,"notes":["E","B","G","D","A","E","B"],"capo":0,"stringnotes":["E4","B3","G3","D3","A2","E2"],"comments":["Stave 1:","Stave 2:"],"timing":[["W","W","W","W",null,null,"W","W",null,"W","W",null,null,"W","W","W","W"],[null,"W","W","W",null,null,null,"W",null,null,null,"W","W",null,null,"W","W"]],"timingvisible":false,"tabcounter":18,"stave":1,"totalstaves":2,"instrument":"6guitar","selectedtuning":"6_standard","version":"13"}

Member for

8 months 2 weeks
Submitted by zaydebuti on Tue, 2020-10-20 18:27