Vampire Queen

Chords

01234567891011121314151617181920212223
E
B
G
D
A
E
B
0 1 2 3 4 5 6 7 8 9 10 11 12 13 14 15 16 17 18 19 20 21 22 23
(/) Slide Up  (\) Slide Down  (h) Hammer On  (p) Pull Off  (b) Bend (r) Release (v) Vibrato

Intro 1

E|--0--0--0--0--0--0--3--5--3--2--0-----------------------------
B|--2--2--2--2--2--2--5--7--5--4--2--3--3--3--2--2--0--0--0--2--
G|--2--2--2--2--2--2--5--7--5--4--2--5--5--5--4-----2--2--2--4--
D|-----------------------------------5--5--5--4-----2--2--2--4--
A|--------------------------------------------------------------
E|--------------------------------------------------------------

Intro 2:

E|--0--0--0--0--0--0--3--5--3--2-----------------------
B|--2--2--2--2--2--2--5--7--5--4--2--3--3--3--2--2--0--
G|--2--2--2--2--2--2--5--7--5--4-----5--5--5--4-----2--
D|-----------------------------------5--5--5--4-----2--
A|-----------------------------------------------------
E|-----------------------------------------------------

							http://www.guitartabcreator.com
genre
Instruments
{"strings":[[[0,0,0,0,0,0,3,5,3,2,0,".",".",".",".",".",".",".",".","."],[2,2,2,2,2,2,5,7,5,4,2,3,3,3,2,2,0,0,0,2],[2,2,2,2,2,2,5,7,5,4,2,5,5,5,4,".",2,2,2,4],[".",".",".",".",".",".",".",".",".",".",".",5,5,5,4,".",2,2,2,4],[".",".",".",".",".",".",".",".",".",".",".",".",".",".",".",".",".",".",".","."],[".",".",".",".",".",".",".",".",".",".",".",".",".",".",".",".",".",".",".","."]],[[0,0,0,0,0,0,3,5,3,2,".",".",".",".",".",".","."],[2,2,2,2,2,2,5,7,5,4,2,3,3,3,2,2,0],[2,2,2,2,2,2,5,7,5,4,".",5,5,5,4,".",2],[".",".",".",".",".",".",".",".",".",".",".",5,5,5,4,".",2],[".",".",".",".",".",".",".",".",".",".",".",".",".",".",".",".","."],[".",".",".",".",".",".",".",".",".",".",".",".",".",".",".",".","."]]],"numberofstrings":6,"notes":["E","B","G","D","A","E","B"],"capo":0,"stringnotes":["E4","B3","G3","D3","A2","E2"],"comments":["Intro 1","Intro 2:","Stave 3:","Stave 4:"],"timing":[[null,null,null,null,null,null,null,null,null,null,null,null,null,null,null,null,null,null,null,null,null],[null,null,null,null,null,null,null,null,null,null,null,null,null,null,null,null,null,null,null]],"timingvisible":false,"tabcounter":16,"stave":1,"totalstaves":2,"instrument":"6guitar","selectedtuning":"6_standard","version":"13"}

Member for

2 months
Submitted by zasherr on Thu, 2020-11-12 15:41