Sound will begin in 5 seconds

Your Life (On Love)

01234567891011121314151617181920212223
E
B
G
D
A
E
B
0 1 2 3 4 5 6 7 8 9 10 11 12 13 14 15 16 17 18 19 20 21 22 23
Song Science #1: How Pros Use 6 Chords to Write Hit Songs
(/) Slide Up  (\) Slide Down  (h) Hammer On  (p) Pull Off  (b) Bend (r) Release (v) Vibrato

Stave 1:

E|---------------------------7-7------------------------7-7--------------------------7-
B|---------------------------8---8----------------------8---8------------------------8-
G|-----------7-----7h9r7-----9-----9---7-----7-9-9/11---7-----9---7-----7-9-9/11-5-7-7-
D|-----------7-----------9---7---------7---7------------9---------7---7----------5-7-9-
A|-----5-7/9---------------7-----------9-9------------7-----------9-9------------7-9-7-
E|-5-5---------9-9-------------------9--------------------------9----------------7-9---

Stave 2:

E|---------------------------7-7---------7-7------------7----7-7-
B|---------------------------8-8---------8-8------------8----8-8-
G|-----------7-----7h9r7-----7-7---7-7---7-7---7-7-5-7--7----7-7-
D|-----------7-----------9---9-9---7-7---9-9---7-7-5-7--9----9-9-
A|-----5-7/9---------------7-------9-9-7-------9-9-7-9--7----7-7-
E|-5-5---------9-9---------------9-----------9-----7-9-----------

Stave 3:

E|---------------------7-7--7-7--7-7-----
B|---------------------8-8--8-8--8-8-7-7-
G|-----------7-7--7-7--7-7--7-7--7-7-----
D|-9-9--9-9--7-7--7-7--9-9--9-9--9-9-7-7-
A|-5-5--5-5--9-9--9-9--7-7--7-7--7-7-5-5-
E|-5-5--5-5--9-9--9-9--------------------

Stave 4:

E|--------------------------|--------------------------
B|--------------------------|--------------------------
G|--------------------------|----------------7---5-----
D|-5-7-9-9-10-9-7-9-5-7-4-5-|-5-7-9-9-10-9-7---9---7-5-
A|--------------------------|--------------------------
E|--------------------------|--------------------------

Stave 5:

E|-------------------------|-------------------------
B|-------------------------|---------------7---5-----
G|-4-5-7-7-9-7-5-7-4-5-2-4-|-4-5-7-7-9-7-5---7---5-4-
D|-------------------------|-------------------------
A|-------------------------|-------------------------
E|-------------------------|-------------------------

Stave 6:

E|----------------------------------------|---------------------------
B|---------------------2-2--2-2--2-2--2-2-|-----------------2-2-2-2-2-
G|-7-7--7-7--2-2--2-2--2-2--2-2--2-2--2-2-|-7-7--7--2-2--2--2-2-2-2-2-
D|-7-7--7-7--2-2--2-2--2-2--2-2--2-2--2-2-|-7-7--7--2-2--2--2-2-2-2-2-
A|-9-9--9-9--4-4--4-4--0-0--0-0--0-0--0-0-|-9-9--9--4-4--4--0-0-0-0-0-
E|-9-9--9-9--4-4--4-4---------------------|-9-9--9--4-4--4------------

Stave 7:

E|---------------------------------------------|--------------------------------------------------
B|---------------------------------------------|-7-8-7---7-------7-8-7----------------------------
G|---------------------------------------------|-------9---9-7---------9-7-----7---7-9/11-9-7-----
D|-------5---5-7-9-7-5---5---------------------|---------------9-----------9-7---9------------9-7-
A|-5-7-9---9-----------9---9-7-5-7-5-9-7-5-5-2-|--------------------------------------------------
E|---------------------------------------------|--------------------------------------------------

Stave 8:

E|----------------------------------------------------
B|-----8-10-12-10-8-----8-10-12-10-8-10-8-12-10-8-----
G|-7-9--------------7-9---------------------------9-7-
D|----------------------------------------------------
A|----------------------------------------------------
E|----------------------------------------------------

Stave 9:

E|-------------------------------------------------------------------
B|-12-10-8-10-8-7-8-7---7-----12-10-8-10-8-7-8-7---7-----8-7-8-10-12-
G|--------------------9---9-7--------------------9---9-7-------------
D|-------------------------------------------------------------------
A|-------------------------------------------------------------------
E|-------------------------------------------------------------------

Stave 10:

E|-5-7-5---5-------5-7-5--------------------------
B|-------8---8-7---------8-7-----7---8/10-8-7-----
G|---------------7-----------7-6---7----------7-6-
D|------------------------------------------------
A|------------------------------------------------
E|------------------------------------------------

Stave 11:

E|-10-9-7-9-7----7-------------10-9-7-9-7----7-------------7-5-7-9-10-
B|------------10---10-8-10-8-7------------10---10-8-10-8-7------------
G|--------------------------------------------------------------------
D|--------------------------------------------------------------------
A|--------------------------------------------------------------------
E|--------------------------------------------------------------------

http://www.guitartabcreator.com
Guitar Tab Creator is intended to store guitar tab created through the tool. It currently does not support in-line text editing. Any text you place in here will be lost. If you need to comment on your tab, please use the "Tab Notes" section located below.