Sound will begin in 5 seconds

Sights & Sounds

01234567891011121314151617181920212223
E
B
G
D
A
E
B
0 1 2 3 4 5 6 7 8 9 10 11 12 13 14 15 16 17 18 19 20 21 22 23
Song Science #1: How Pros Use 6 Chords to Write Hit Songs
(/) Slide Up  (\) Slide Down  (h) Hammer On  (p) Pull Off  (b) Bend (r) Release (v) Vibrato

Stave 1:

E|-------------------------------------------------------------------------------------------------
B|-------------------------------------------------------------------------------------------------
G|-------------------------------------------------------------------------------------------------
D|---------10-9---------------10-9----------------------------5-4--------------5-4-----------------
A|-7-7-7-7------10-9--7-7-7-7------10-9-9-9-9-9/12-12-3-3-3-3-----5-3--3-3-3-3-----5-3-3-3-3-3/5-5-
E|-------------------------------------------------------------------------------------------------

Stave 2:

E|----------------------------------------------------------------------------------------------
B|----------------------------------------------------------------------------------------------
G|---------9-7--------------9-7----------------------------4-2--------------4-2-----------------
D|-5-5-5-5-----9-7--5-5-5-5-----9-7-7-7-7-7/10-10--2-2-2-2-----4-2--2-2-2-2-----4-2-2-2-2-2/4-4-
A|----------------------------------------------------------------------------------------------
E|----------------------------------------------------------------------------------------------

Stave 3:

E|-------------------------|---------------------7-
B|---------------7-7---8-8-|---------------------7-
G|---5-5---7-7-------------|---5-5---7-7-8-8-8-8-8-
D|---5-5---7-7---7-7---9-9-|---5-5---7-7-9-9-9-9-9-
A|---7-7---9-9-5-5-5-7-7-7-|---7-7---9-9-7-7-7-7-7-
E|-7-7-7-9-9-9-------------|-7-7-7-9-9-9-----------

Stave 4:

E|--------------------------------------------------------------------------------------
B|--------------------------------------------------------------------------------------
G|-9---7--------------------------------------------------------------------------------
D|---9---7-9-7-5-5-7-9-9-10-7-9-4-7-5-4-5-7-9-9-10-7-9-4-9-7-5-5-7-9-9-10-7-9-4-5-7-9-9-
A|--------------------------------------------------------------------------------------
E|--------------------------------------------------------------------------------------

Stave 5:

E|-----------------------------------------------------------------------------------
B|-8---7-----------------------------------------------------------------------------
G|---7---5-7-5-4-4-5-7-7-9-5-7-2-5-4-2-4-5-7-7-9-5-7-2-7-5-4-4-5-7-7-9-5-7-2-4-5-7-7-
D|-----------------------------------------------------------------------------------
A|-----------------------------------------------------------------------------------
E|-----------------------------------------------------------------------------------

Stave 6:

E|-5-7-5-7-8--10-7-10-7-8--
B|-7-8-7-8-10-12-8-12-8-10-
G|-------------------------
D|-------------------------
A|-------------------------
E|-------------------------

Stave 7:

E|-
B|-
G|-
D|-
A|-
E|-

http://www.guitartabcreator.com
Guitar Tab Creator is intended to store guitar tab created through the tool. It currently does not support in-line text editing. Any text you place in here will be lost. If you need to comment on your tab, please use the "Tab Notes" section located below.