Sound will begin in 5 seconds

She Said

01234567891011121314151617181920212223
E
B
G
D
A
E
B
0 1 2 3 4 5 6 7 8 9 10 11 12 13 14 15 16 17 18 19 20 21 22 23
Song Science #1: How Pros Use 6 Chords to Write Hit Songs
(/) Slide Up  (\) Slide Down  (h) Hammer On  (p) Pull Off  (b) Bend (r) Release (v) Vibrato

Stave 1:

E|--------------------------------------------------------------------------
B|--------------------------------------------------------------------------
G|--------------------------------------------------------------------------
D|-5-5-5-4-5-4-5--5-5-5-4-5-4-5--10-10-10-9--10-9--10--10-10-10-9--12-10-9--
A|-7-7-7-5-7-5-7--7-7-7-5-7-5-7--12-12-12-10-12-10-12--12-12-12-10-14-12-10-
E|--------------------------------------------------------------------------

Stave 2:

E|--0-0--0-0----------------------------------------------------------------------
B|--0-0--0-0----------------------------------------------------------------------
G|--0-0--0-0----------------------------------------------------------------------
D|--2-2--1-1----------------------7-------------------------------------7---------
A|--0-0--2-2--7-7-7-7-7-7--7-9-10---10-9-10------------------------9-10---10-9-10-
E|-------------------------------------------10-10-10-10-10-10--10----------------

Stave 3:

E|-------------------------------------------------------------------------
B|-------------------------------------------------------------------------
G|-------------------------------------------------------------------------
D|----------------------7---10/12------------------------------------------
A|--7-7-7-7-7-7--7-9-10---9------------------------------7----------9-10-9-
E|---------------------------------10-10-10-10-10-10--10---10-10/12--------

Stave 4:

E|-------------------------------------------------------------------------------------
B|-------------------------------------------------------------------------------------
G|---------------------7--------------------------7---------------------------7---9/12-
D|--5-5-5-5-5-5--5-7-9---9-7-9----------------7-9---9-7-9--5-5-5-5-5-5--5-7-9---9------
A|-----------------------------7-7-7-7-7-7--7------------------------------------------
E|-------------------------------------------------------------------------------------

Stave 5:

E|-----------------------------
B|-----------------------------
G|-----------------------------
D|-----------------5-----7-9-7-
A|--7-7-7-7-7-7--7---7-9-------
E|-----------------------------

Stave 6:

E|--0-0-0-0---------------------------0-0-0-0---------------------
B|--0-0-0-0---------------------------0-0-0-0---------------------
G|--0-0-0-0---------------------------0-0-0-0---------------------
D|--2-2-1-1-5-5-4-5-4-5--5-5-4-5-4-5--2-2-1-1-5-5-4-5-4-5-7-9--12-
A|--0-0-2-2-7-7-5-7-5-7--7-7-5-7-5-7--0-0-2-2-7-7-5-7-5-7-9-10-14-
E|----------------------------------------------------------------

Stave 7:

E|-----------------------------------------------------
B|--8-8-7-8-7-8-8-8-8-7-8-7-8---8-8-7-8-7-8-8-10-12-15-
G|--9-9-7-9-7-9-9-9-9-7-9-7-9---9-9-7-9-7-9-9-11-12-16-
D|-----------------------------------------------------
A|-----------------------------------------------------
E|-----------------------------------------------------

Stave 8:

E|--10-5-7-2---2-3-7-5-2-
B|--12-7-8-3-3-3-5-8-7-3-
G|-----------4-----------
D|-----------------------
A|-----------------------
E|-----------------------

Stave 9:

E|-----------------------|---------------------|---------------------|---------------------
B|-----------------------|---------------------|---------------------|-----------7-----5---
G|-----------------------|---------------------|-----------7-----6---|-----4---7---7-6---6-
D|--------5-------7-9--7-|-----5---------------|-----5---9---9-7---7-|-5-5---5-------------
A|--7--7--7-7--9--9-10-9-|-------2---2-----4---|-7-7---7-------------|---------------------
E|--10-10---10-12--------|-2-2-----5---5-7---7-|---------------------|---------------------

http://www.guitartabcreator.com
Guitar Tab Creator is intended to store guitar tab created through the tool. It currently does not support in-line text editing. Any text you place in here will be lost. If you need to comment on your tab, please use the "Tab Notes" section located below.