Sound will begin in 5 seconds

Matter In Motion

01234567891011121314151617181920212223
E
B
G
D
A
E
B
0 1 2 3 4 5 6 7 8 9 10 11 12 13 14 15 16 17 18 19 20 21 22 23
Song Science #1: How Pros Use 6 Chords to Write Hit Songs
(/) Slide Up  (\) Slide Down  (h) Hammer On  (p) Pull Off  (b) Bend (r) Release (v) Vibrato

Stave 1:

E|----------------------------------------------
B|-10--10--10-10-10-10-10-10-----------9--9-9-9-
G|----------------------------7--7-7-7----------
D|-11--11--11-11-11-11-11-11--7--7-7-7-9--9-9-9-
A|-9---9---9--9--9--9--9--9---9--9-9-9-7--7-7-7-
E|----------------------------9--9-9-9----------

Stave 2:

E|-------------------------|---------------------------------------
B|-------------------------|---------------------------------------
G|-6-7--9--7-6-6-7--9--7-6-|-11-9--7-6--6-7-6-9--7-6--6-7-6-9--7-6-
D|-7-9--11-9-7-7-9--11-9-7-|-12-11-9-7--7-9-7-11-9-7--7-9-7-11-9-7-
A|-------------------------|---------------------------------------
E|-------------------------|---------------------------------------

Stave 3:

E|-----------------------------------------------------------------------
B|------------------------------------------------------------9-9--9-9-9-
G|-------6-----------6-----------6-----------6-----7-7--7-7-7------------
D|-----7---7-------7---7-------7---7-------7---7---7-7--7-7---9-9--9-9-9-
A|-7-9-------9-7-9-------9-7-9-------9-7-9-------9-9-9--9-9-9-7-7--7-7-7-
E|-------------------------------------------------9-9--9-9-9------------

Stave 4:

E|-------------------------------------------------
B|-------5-----------5-----------5-----------5-----
G|-----6---6-------6---6-------6---6-------6---6---
D|-6-7-------7-6-7-------7-6-7-------7-6-7-------7-
A|-------------------------------------------------
E|-------------------------------------------------

Stave 5:

E|----------------------------------------------------------------
B|----------------------------------------------------------------
G|-2-2------------7-7---------------------------7-7---------------
D|-2-2------------7-7-------------2-2-----------7-7---------------
A|-4-4------4-2-4-9-9-------9-7-9-2-2-----4-2-4-9-9--------9-7-12-
E|-4-4--4-7-------9-9--9-12-------4-4-4-7-------9-9---9-12--------

Stave 6:

E|-----------------------------|----------------------------------------------
B|-7-7--7-7-7--10-10--10-10-10-|------------7-7--7-7-7-------------9-9--9-9-9-
G|-----------------------------|-5-5--5-5-5-------------7-7--7-7-7------------
D|-7-7--7-7-7--10-10--10-10-10-|-5-5--5-5-5-7-7--7-7-7--7-7--7-7-7-9-9--9-9-9-
A|-5-5--5-5-5--8--8---8--8--8--|-7-7--7-7-7-5-5--5-5-5--9-9--9-9-9-7-7--7-7-7-
E|-----------------------------|-7-7--7-7-7-------------9-9--9-9-9------------

Stave 7:

E|---------------------------------------------------7-
B|-------------------------------7---7-8-7-8-10-8-10---
G|-------------6---6-7-6-7-9-7-9---9-------------------
D|-7-6-7-9-7-9---9-------------------------------------
A|-----------------------------------------------------
E|-----------------------------------------------------

Stave 8:

E|-------------------------------5---5-7-5-7-9-7-9-10-
B|-------------5---5-7-5-7-8-7-8---8------------------
G|-6-4-6-7-6-7---7------------------------------------
D|----------------------------------------------------
A|----------------------------------------------------
E|----------------------------------------------------

Stave 9:

E|-----------------------------------------------------------------------------
B|-----------------------------------------------------------------------------
G|------------6-7-9-6-7-6-----6-7-6-7-6-----6-7-9/11-9-6-7-6-----6-7-6-7-6-----
D|-7-9-11-9-7-------------9-7-----------9-7------------------9-7-----------9-7-
A|-----------------------------------------------------------------------------
E|-----------------------------------------------------------------------------

Stave 10:

E|----------------------------------------------------------------------------
B|-----------5-7-9-5-7-5-----5-7-5-7-5-----5-7-9/10-9-5-7-5-----5-7-5-7-5-----
G|-6-7-9-7-6-------------7-6-----------7-6------------------7-6-----------7-6-
D|----------------------------------------------------------------------------
A|----------------------------------------------------------------------------
E|----------------------------------------------------------------------------

Stave 11:

E|-------------------------------------------------------------------------------------------------------
B|-------------------------------------------------------------------------------------------------------
G|-------6-----------6-----------6-----------6--------------11----------------11----------------11-------
D|-----7---7-------7---7-------7---7-------7---7---------12----12----------12----12----------12----12----
A|-7-9-------9-7-9-------9-7-9-------9-7-9-------9-12-14----------14-12-14----------14-12-14----------14-
E|-------------------------------------------------------------------------------------------------------

Stave 12:

E|-------------------------------------------------------------------------------------------------------
B|-------5-----------5-----------5-----------5--------------10----------------10----------------10-------
G|-----6---6-------6---6-------6---6-------6---6---------11----11----------11----11----------11----11----
D|-6-7-------7-6-7-------7-6-7-------7-6-7-------7-11-12----------12-11-12----------12-11-12----------12-
A|-------------------------------------------------------------------------------------------------------
E|-------------------------------------------------------------------------------------------------------

http://www.guitartabcreator.com
Guitar Tab Creator is intended to store guitar tab created through the tool. It currently does not support in-line text editing. Any text you place in here will be lost. If you need to comment on your tab, please use the "Tab Notes" section located below.