Sound will begin in 5 seconds

Little Red Rose

01234567891011121314151617181920212223
E
B
G
D
A
E
B
0 1 2 3 4 5 6 7 8 9 10 11 12 13 14 15 16 17 18 19 20 21 22 23
Song Science #1: How Pros Use 6 Chords to Write Hit Songs
(/) Slide Up  (\) Slide Down  (h) Hammer On  (p) Pull Off  (b) Bend (r) Release (v) Vibrato

Stave 1:

E|-----------------------------------------------------------------------------------------
B|-----------------------------------------------------------------------------------------
G|-----------------------------------------------------------------------------------------
D|-----------3--------5-----5--7--5--3--5--3-----------------3--------5-----5--7--5--3-----
A|-----3--5-----5--3-----3--------------------5--3-----3--5-----5--3-----3--------------5--
E|--0-----------------------------------------------0--------------------------------------

Stave 2:

E|-----------------------------------------------------------------------------------------------
B|-----------------------------------------------------------------------------------------------
G|-----------------------------------------------------------------------------------------------
D|-----------3--------5-----5--7--5--3--5--3-----------------3--------5-----5--7--5--3--5--------
A|-----3--5-----5--3-----3--------------------5--3--1--3--5-----5--3-----3-----------------5--3--
E|--5--------------------------------------------------------------------------------------------

Stave 3:

E|--------------------------------------------------|-------------------
B|--------------------------------------------------|-------------------
G|-----------2--------3-----3--5--3--2--3--2--------|--2--3--5--9---10--
D|-----2--3-----3--2-----2--------------------3--2--|--3--5--7--10--8---
A|--5-----------------------------------------------|--5--7--8--12--10--
E|--------------------------------------------------|-------------------

Stave 4:

E|------------------------------------------------------------------------------------------------------
B|------------------------------------------------------------------------------------------------------
G|------------------------------------------------------------------------------------------------------
D|------------------------------------------------------------------------------------------------------
A|-------------8---------10-----10--12--10--8--10--8-------------8---------10-----10--12--10--8--10--8--
E|--8--10--12-----12--8------8------------------------8--10--12-----12--8------8------------------------

Stave 5:

E|--------------------------------------------------------------------------------------------
B|--------------------------------------------------------------------------------------------
G|--------------------------------------------------------------------------------------------
D|--------------------------------------------------------------------------------------------
A|-----------3--------5-----5--7--5--3--5--3-----------3--------5-----5--7--5--3--5--3-----3--
E|--3--5--7-----7--3-----3--------------------3--5--7-----7--3-----3--------------------7-----

Stave 6:

E|----------------------------------------------------------------------------------------------------------------
B|----------------------------------------------------------------------------------------------------------------
G|-------------10----------12------12--14--12--10--12--10-------------10----------12------12--14--12--10--12--10--
D|--8--10--12------12--10------10--------------------------8--10--12------12--10------10--------------------------
A|----------------------------------------------------------------------------------------------------------------
E|----------------------------------------------------------------------------------------------------------------

Stave 7:

E|--------------------------------------------------------------------------------------------
B|--------------------------------------------------------------------------------------------
G|-----------5--------7-----7--9--7--5--7--5-----------5--------7-----7--9--7--5--7--5-----5--
D|--3--5--7-----7--5-----5--------------------3--5--7-----7--5-----5--------------------7-----
A|--------------------------------------------------------------------------------------------
E|--------------------------------------------------------------------------------------------

Stave 8:

E|--_----------------------------------
B|--10--10--10--10--10--10--10--10--12--
G|--10--10--10--10--10--10--10--12--14--
D|--_----------------------------------
A|--_----------------------------------
E|--_----------------------------------

Stave 9:

E|-------------|---------------------------------------------------
B|-------------|---------------------------------------------------
G|--7--3--2--2--|--10--9--------------------------------------------
D|--8--5--3--3--|---------10--------------10--12--10----------------
A|--8--5--0--3--|-------------12--10--12--------------12--10--8--5--
E|-------0-----|---------------------------------------------------

http://www.guitartabcreator.com
Guitar Tab Creator is intended to store guitar tab created through the tool. It currently does not support in-line text editing. Any text you place in here will be lost. If you need to comment on your tab, please use the "Tab Notes" section located below.