Sound will begin in 5 seconds

Of Hope & Prayer

01234567891011121314151617181920212223
E
B
G
D
A
E
B
0 1 2 3 4 5 6 7 8 9 10 11 12 13 14 15 16 17 18 19 20 21 22 23
Song Science #1: How Pros Use 6 Chords to Write Hit Songs
(/) Slide Up  (\) Slide Down  (h) Hammer On  (p) Pull Off  (b) Bend (r) Release (v) Vibrato

Stave 1:

E|-------------------------------------
B|-------------------------------------
G|-10-10-10-10-5-5-7-7-7-2-2-2-5-5-7-7-
D|-12-12-12-12-7-7-8-8-8-3-3-3-7-7-8-8-
A|-12-12-12-12-7-7-8-8-8-3-3-3-7-7-8-8-
E|-------------------------------------

Stave 2:

E|-------------------------------------------------
B|-------------------------------------------------
G|-14-14-14-14-10-10-12-12-12-9--9--9--10-10-12-12-
D|-15-15-15-15-12-12-14-14-14-10-10-10-12-12-14-14-
A|-------------------------------------------------
E|-------------------------------------------------

Stave 3:

E|-------------------------------------------------------
B|-------------------------------------------------------
G|-14-14-14-14-17-17-17-15-15-15-14-14-14-14-10-10-12-12-
D|-15-15-15-15-19-19-19-17-17-17-15-15-15-15-12-12-14-14-
A|-------------------------------------------------------
E|-------------------------------------------------------

Stave 4:

E|-------------------------------|-------------
B|-------------------------------|-------------
G|-------------------------------|-----9-5h7p5-
D|-----8-----10---------10-7h8p7-|-5h7---------
A|---5-----7------7-7h8----------|-------------
E|-5-----7------8----------------|-------------

Stave 5:

E|---------------------------------------|------------------
B|---------------------------------------|------------------
G|---------------------------------------|-9h10p9\7-5h7p5---
D|-----8-----10-----7-10h12p10\8-7h8p7---|----------------7-
A|---5-----7------8--------------------8-|------------------
E|-5-----7------8------------------------|------------------

Stave 6:

E|-----------------
B|-----------------
G|-----------------
D|-----8-----10-10-
A|---5-----7----8--
E|-5-----7------8--

http://www.guitartabcreator.com
Guitar Tab Creator is intended to store guitar tab created through the tool. It currently does not support in-line text editing. Any text you place in here will be lost. If you need to comment on your tab, please use the "Tab Notes" section located below.