Sound will begin in 5 seconds

The Give Up

01234567891011121314151617181920212223
E
B
G
D
A
E
B
0 1 2 3 4 5 6 7 8 9 10 11 12 13 14 15 16 17 18 19 20 21 22 23
Song Science #1: How Pros Use 6 Chords to Write Hit Songs
(/) Slide Up  (\) Slide Down  (h) Hammer On  (p) Pull Off  (b) Bend (r) Release (v) Vibrato

Stave 1:

E|-----------------|--------------------------
B|-----------------|--------------------------
G|-1-1--2-2--9--9--|-1-1--2-2--9--9---8-8-8-8-
D|-2-2--4-4--11-11-|-2-2--4-4--11-11--9-9-9-9-
A|-2-2--4-4--11-11-|-2-2--4-4--11-11--9-9-9-9-
E|-----------------|--------------------------

Stave 2:

E|-----------------|---------------------------
B|-----------------|---------------------------
G|-4-4--6-6--13-13-|-4-4-6-6-13-13-11-11-11-11-
D|-6-6--7-7--14-14-|-6-6-7-7-14-14-13-13-13-13-
A|-----------------|---------------------------
E|-----------------|---------------------------

Stave 3:

E|----------------------|------------------------
B|----------------------|------------------------
G|-1-1-2-2-1--8-8-9--9--|-1-1-2-2-1--8-8-9--9--8-
D|-2-2-4-4-2--9-9-11-11-|-2-2-4-4-2--9-9-11-11-9-
A|-2-2-4-4-2--9-9-11-11-|-2-2-4-4-2--9-9-11-11-9-
E|----------------------|------------------------

Stave 4:

E|------------------------|---------------------------
B|------------------------|---------------------------
G|-4-4-6-6-4--11-11-13-13-|-4-4-6-6-4--11-11-13-13-11-
D|-6-6-7-7-6--13-13-14-14-|-6-6-7-7-6--13-13-14-14-13-
A|------------------------|---------------------------
E|------------------------|---------------------------

Stave 5:

E|-0-0-0---0-0-0--0-|-------------------
B|-0-0-0---0-0-0--0-|-------------------
G|-1-2-9---1-2-9--8-|-4-6-13--4-6-13-11-
D|-2-4-11--2-4-11-9-|-6-7-14--6-7-14-13-
A|-2-4-11--2-4-11-9-|-------------------
E|------------------|-------------------

http://www.guitartabcreator.com
Guitar Tab Creator is intended to store guitar tab created through the tool. It currently does not support in-line text editing. Any text you place in here will be lost. If you need to comment on your tab, please use the "Tab Notes" section located below.