Sound will begin in 5 seconds

Ghost

01234567891011121314151617181920212223
E
B
G
D
A
E
B
0 1 2 3 4 5 6 7 8 9 10 11 12 13 14 15 16 17 18 19 20 21 22 23
Song Science #1: How Pros Use 6 Chords to Write Hit Songs
(/) Slide Up  (\) Slide Down  (h) Hammer On  (p) Pull Off  (b) Bend (r) Release (v) Vibrato

Stave 1:

E|-0-0-0--|---------------------------------
B|-0-0-0--|---------------------------------
G|-6-4-9--|----9------8------13-------13----
D|-7-6-11-|-11---11-9---9-14----14-14----14-
A|-7-6-11-|---------------------------------
E|--------|---------------------------------

Stave 2:

E|-----------------------|----------------------
B|-----------------------|----------------------
G|--9--9--9--1-1-2-2-2-1-|-13-13-13-4-4-6-6-6-4-
D|--11-11-11-2-2-4-4-4-2-|-14-14-14-6-6-7-7-7-6-
A|--11-11-11-2-2-4-4-4-2-|----------------------
E|-----------------------|----------------------

Stave 3:

E|--0--0-0-|-0--0-0-0-
B|--0--0-0-|-0--0-0-0-
G|--9--1-2-|-9--6-4-8-
D|--11-2-4-|-11-7-6-9-
A|--11-2-4-|-11-7-6-9-
E|---------|----------

Stave 4:

E|---------------------------------------
B|--9-9-9-9-10-12--14-12-10-9--12-10-9-7-
G|--9-9-9-9-11-13--14-13-11-9--13-11-9-8-
D|---------------------------------------
A|---------------------------------------
E|---------------------------------------

Stave 5:

E|----------------------------------------------
B|--9-9-9-9-10-12-9----9--14-12-10-9--12-10-9-7-
G|--9-9-9-9-11-13-9-9--9--14-13-11-9--13-11-9-8-
D|------------------11--------------------------
A|----------------------------------------------
E|----------------------------------------------

http://www.guitartabcreator.com
Guitar Tab Creator is intended to store guitar tab created through the tool. It currently does not support in-line text editing. Any text you place in here will be lost. If you need to comment on your tab, please use the "Tab Notes" section located below.