Sound will begin in 5 seconds

Freedom

01234567891011121314151617181920212223
E
B
G
D
A
E
B
0 1 2 3 4 5 6 7 8 9 10 11 12 13 14 15 16 17 18 19 20 21 22 23
Song Science #1: How Pros Use 6 Chords to Write Hit Songs
(/) Slide Up  (\) Slide Down  (h) Hammer On  (p) Pull Off  (b) Bend (r) Release (v) Vibrato

Stave 1:

E|---7-7-----------------------
B|---8-8-----------------------
G|---7-7----9----7---5-5---7-7-
D|---9-9----9----7---5-5---7-7-
A|-7--------10---9---7-7---9-9-
E|-------10----9---7-----9-----

Stave 2:

E|---7-7---------------------
B|---8-8---------------------
G|---7-7----9----7---5-5-7-7-
D|---9-9----9----7---5-5-7-7-
A|-7--------10---9---7-7-9-9-
E|-------10----9---7-----9-9-

Stave 3:

E|----------------------------------------------------------------------------
B|-15----------15-15----------15-15-------13-14-13-------13-14-13-------------
G|----12-11-12-------12-11-12-------12-11----------15-13----------15-13/15-13-
D|----------------------------------------------------------------------------
A|----------------------------------------------------------------------------
E|----------------------------------------------------------------------------

Stave 4:

E|-14----------14-14----------14-14-------10-12-10-------10-12-10-------------
B|----12-10-12-------12-10-12-------12-10----------13-12----------13-12/13-12-
G|----------------------------------------------------------------------------
D|----------------------------------------------------------------------------
A|----------------------------------------------------------------------------
E|----------------------------------------------------------------------------

Stave 5:

E|-7----------
B|-8----------
G|-7-9--7-5-7-
D|-9-9--7-5-7-
A|-7-10-9-7-9-
E|---10-9-7-9-

Stave 6:

E|-7------------
B|---7---7---12-
G|-----7--------
D|---------7----
A|--------------
E|--------------

Stave 7:

E|--------------------------------------|--------------------------------------
B|--------------------------------------|--------------------------------------
G|-4-4-4-5-5-7--7-7-7-4-4-7-7-7-4-4-4-5-|-7-7-5-4-4----7-7-7-4-4-7-7-7-4-4-4-5-
D|-5-5-5-7-7-9--9-9-9-5-5-9-9-9-5-5-5-7-|-9-9-7-5-5-5--9-9-9-5-5-9-9-9-5-5-5-7-
A|--------------------------------------|-----------7--------------------------
E|--------------------------------------|--------------------------------------

http://www.guitartabcreator.com
Guitar Tab Creator is intended to store guitar tab created through the tool. It currently does not support in-line text editing. Any text you place in here will be lost. If you need to comment on your tab, please use the "Tab Notes" section located below.