Sound will begin in 5 seconds

Diabolical

01234567891011121314151617181920212223
E
B
G
D
A
E
B
0 1 2 3 4 5 6 7 8 9 10 11 12 13 14 15 16 17 18 19 20 21 22 23
Song Science #1: How Pros Use 6 Chords to Write Hit Songs
(/) Slide Up  (\) Slide Down  (h) Hammer On  (p) Pull Off  (b) Bend (r) Release (v) Vibrato

Stave 1:

E|----10-10-10--------10-10-10-----------------
B|----11-11-11-6-8----11-11-11-6-8-------------
G|----10-10-10--------10-10-10-----8--8--10-10-
D|----12-12-12-7-8----12-12-12-7-8-8--8--10-10-
A|-10----------5-6-10----------5-6-10-10-12-12-
E|---------------------------------10-10-12-12-

Stave 2:

E|----------------------------------
B|----6-8----6-8----6-8-------------
G|----------------------8--8--10-10-
D|-8--7-8-8--7-8-8--7-8-8--8--10-10-
A|-5--5-6-5--5-6-5--5-6-10-10-12-12-
E|-5------5------5------10-10-12-12-

Stave 3:

E|----------------------------------------------------------------
B|----------------------------------------------------------------
G|----------------------------------------------------------------
D|-7/8-8-8-------7/8-8-8-------7/8-8-8-----------8----------10----
A|---------8-10----------8-10----------8-10-8/10---10-10/12----12-
E|----------------------------------------------------------------

Stave 4:

E|-------------------------------------------------------
B|-------------------------------------------------------
G|-5/7-7-7------5/7-7-7------5/7-7-7-------7--------9----
D|---------7-8----------7-8----------7-8-8---8-8/10---10-
A|-------------------------------------------------------
E|-------------------------------------------------------

Stave 5:

E|-----------------|---------
B|-------4-4--4-4--|-------4-
G|-3-3-2-----------|-3-3-2---
D|-3-3-3-5-5--5-5--|-3-3-3-5-
A|-5-5-1-3-3--3-3--|-5-5-1-3-
E|-5-5-------------|-5-5-----

Stave 6:

E|--------------------------------------|--------------------------------------
B|--------------------------------------|-8--11-10-6\3--3-6-3-8-8--11-10-11/13-
G|-----3---3-5/7------3---3-5/7-5-3-2-3-|--------------------------------------
D|-3/5---5--------3/5---5---------------|--------------------------------------
A|--------------------------------------|--------------------------------------
E|--------------------------------------|--------------------------------------

Stave 7:

E|--------------------------------------|-6--10-8-5\1--1-5-1-6-6--10-8-10/11-
B|-----3---3-4/6------3---3-4/6-4-3-1-3-|------------------------------------
G|-2/3---3--------2/3---3---------------|------------------------------------
D|--------------------------------------|------------------------------------
A|--------------------------------------|------------------------------------
E|--------------------------------------|------------------------------------

Stave 8:

E|--------------------------
B|------10-11-11--11-11--11-
G|-7-7----------------------
D|-8-8--10-12-12--12-12--12-
A|-6-6--8--10-10--10-10--10-
E|--------------------------

Stave 9:

E|-------------------------------------------------------------------------------------------------
B|-------------------------------------------------------------------------------------------------
G|----10-----10-12--12-12-10-12/15-14-12-10-----10-10-----12/15-14-10-10/12------------------------
D|-12----12---------------------------------12--------12---------------------12-12-10-8-10-8-------
A|-------------------------------------------------------------------------------------------12-10-
E|-------------------------------------------------------------------------------------------------

Stave 10:

E|-------------------------------------------------------------------------------------------
B|----10-----10-11-11-11-10-11/15-13-11-10----10-10----10/15-13-10-10/11--10-10-8-7-8-7------
G|-10----10--------------------------------10-------10----------------------------------10-8-
D|-------------------------------------------------------------------------------------------
A|-------------------------------------------------------------------------------------------
E|-------------------------------------------------------------------------------------------

Stave 11:

E|-6-3------
B|-6-4-10---
G|-7-3------
D|-8-5-10---
A|-6-3-8----
E|----------

Stave 12:

E|-----------------------------------------------------------------------------------------
B|-8-10-8-10-8-10/11--------10-10/15b13-11---8-10-8-10-8-10/11-----------10----10/15-10----
G|-------------------10----------------------------------------10-----12----12----------12-
D|----------------------12----------------------------------------12-----------------------
A|-----------------------------------------------------------------------------------------
E|-----------------------------------------------------------------------------------------

Stave 13:

E|-6-8-6-8-6-8/10--------8-8/13b11-10--6-8-6-8-6-8/10-----------8----11/13-8----
B|----------------10----------------------------------10-----11---11---------11-
G|-------------------10----------------------------------10---------------------
D|------------------------------------------------------------------------------
A|------------------------------------------------------------------------------
E|------------------------------------------------------------------------------

http://www.guitartabcreator.com
Guitar Tab Creator is intended to store guitar tab created through the tool. It currently does not support in-line text editing. Any text you place in here will be lost. If you need to comment on your tab, please use the "Tab Notes" section located below.