Sound will begin in 5 seconds

Magbalik Solo tab (Taken from youtube)

01234567891011121314151617181920212223
E
B
G
D
A
E
B
0 1 2 3 4 5 6 7 8 9 10 11 12 13 14 15 16 17 18 19 20 21 22 23
(/) Slide Up  (\) Slide Down  (h) Hammer On  (p) Pull Off  (b) Bend (r) Release (v) Vibrato

Stave 1:

E|----------------------------------------------------------------------------------------14--14--14/16--16--14--12--11--
B|------------------------------------9--12--12--12--10--10--10--9--9------12/17--17--17---------------------------------
G|--------------------------8--9--11-----------------------------------11------------------------------------------------
D|-----------6h7p6h7/9--11-----------------------------------------------------------------------------------------------
A|-----------------------------------------------------------------------------------------------------------------------
E|-----------------------------------------------------------------------------------------------------------------------

Stave 2:

E|--12--11------12--11------12--11------12--11-----17--16------17--16------17--16------17--16-----
B|----------12----------12----------12----------12/--------17----------17----------17-------------
G|------------------------------------------------------------------------------------------------
D|------------------------------------------------------------------------------------------------
A|------------------------------------------------------------------------------------------------
E|------------------------------------------------------------------------------------------------

Stave 3:

E|--12--12--12--11--------------------------------------------------------------------------------------------
B|------------------12------------------------------------10--10--10------------------------------------------
G|----------------------11\9h11--11b13r11p9------9--9h11--------------9--9--9---------------------------------
D|-------------------------------------------11--------------------------------9--9--9--7--7--7--6h7p6--------
A|------------------------------------------------------------------------------------------------------9--7--
E|------------------------------------------------------------------------------------------------------------

http://www.guitartabcreator.com
Guitar Tab Creator is intended to store guitar tab created through the tool. It currently does not support in-line text editing. Any text you place in here will be lost. If you need to comment on your tab, please use the "Tab Notes" section located below.