Sound will begin in 5 seconds

One Thing - Hillsong

Chords
01234567891011121314151617181920212223
E
B
G
D
A
E
B
0 1 2 3 4 5 6 7 8 9 10 11 12 13 14 15 16 17 18 19 20 21 22 23
Song Science #1: How Pros Use 6 Chords to Write Hit Songs
(/) Slide Up  (\) Slide Down  (h) Hammer On  (p) Pull Off  (b) Bend (r) Release (v) Vibrato

Capo Fret 5

Stave 1:

E|------------------------------------------------------------------
B|--------6---------8----------------------------------8------------
G|------------------------------------------------------------------
D|--7--9--7------9--------10--9-----9--10--------9--------10--9-----
A|--7--7--8--10------------------7------------7---------------------
E|------------------------------------------------------------------

Stave 2:

E|------------------------------------------------------------------------
B|-----------6---------------------------8--------------------0-----------
G|--------0-----0------------------0--------0--------------0-----0--------
D|-----7-----------7------------9--------------9--------------------7-----
A|--8-----------------8-----10--------------------------7--------------7--
E|---------------------------------------------------0--------------------

Stave 3:

E|-----------------------
B|--------------8--------
G|--------0--------0-----
D|-----9--------------0--
A|--7--------------------
E|-----------------------

Stave 4:

E|--8-----------8--
B|-----8--6--------
G|-----------0-----
D|-----------------
A|-----------------
E|-----------------

Stave 5:

E|--12--12----------13--12---------12------12--------------13------12--
B|----------13--15-------------13------13------13--15--13------13------
G|---------------------------------------------------------------------
D|---------------------------------------------------------------------
A|---------------------------------------------------------------------
E|---------------------------------------------------------------------

Stave 6:

E|--15--15--15-----15--------13-----13-----12-----12-----15-----15-----
B|---------------------------------------------------------------------
G|--------------0------0---------0------0------0------0------0------0--
D|---------------------------------------------------------------------
A|---------------------------------------------------------------------
E|---------------------------------------------------------------------

Stave 7:

E|--12--10--13--12--
B|--13--13--13--13--
G|------------------
D|------------------
A|------------------
E|------------------

Stave 8:

E|--
B|--
G|--
D|--
A|--
E|--

Stave 9:

E|--
B|--
G|--
D|--
A|--
E|--

Stave 10:

E|----------------------------------------------
B|----------------------------------------------
G|------------------12----------------------12--
D|--10--12--10----------10--12--12--10----------
A|--------------10----------------------10------
E|----------------------------------------------

Stave 11:

E|---------------------------------------------------------
B|---------------------------------------------------------
G|------------------12-------------------------------------
D|----------------------15--14--12-----12--10--12--10--14--
A|--10--12--15--12-----------------------------------------
E|---------------------------------------------------------

http://www.guitartabcreator.com
Guitar Tab Creator is intended to store guitar tab created through the tool. It currently does not support in-line text editing. Any text you place in here will be lost. If you need to comment on your tab, please use the "Tab Notes" section located below.