Sound will begin in 5 seconds

game of thrones theme

Chords
01234567891011121314151617181920212223
E
B
G
D
A
E
B
0 1 2 3 4 5 6 7 8 9 10 11 12 13 14 15 16 17 18 19 20 21 22 23
Song Science #1: How Pros Use 6 Chords to Write Hit Songs
(/) Slide Up  (\) Slide Down  (h) Hammer On  (p) Pull Off  (b) Bend (r) Release (v) Vibrato

Stave 1:

E|-----------------------------------------------------------------------------------------
B|-----------------------------------------------------------------------------------------
G|-----------------------------------------------------------------------------------------
D|--7-----3--5--7-----3--5--7-----3--5--7-----3--5--7-----4--5--7-----4--5--7-----4--5--7--
A|-----5-----------5-----------5-----------5-----------5-----------5-----------5-----------
E|-----------------------------------------------------------------------------------------

Stave 2:

E|-----------------------------------------------------------------------------------------------------
B|-----------------------------------------------------------------------------------------------------
G|-----------------------------------------------------------------------------------------------------
D|--7-----3--5--7-----3--5--2-----------2-----------2-----------2--5-----3--2--5-----3--2--------1--3--
A|-----5-----------5-----------0--3--5-----0--3--5-----0--3--5--------3-----------3--------5--3--------
E|-----------------------------------------------------------------------------------------------------

Stave 3:

E|--------------------------------------------------------------------------------------------
B|--------------------------------------------------------------------------------------------
G|--------------------------------------------------------------------------------------------
D|-----------------------------7-----3--5--7-----3--5--2-----------2-----------2-----------2--
A|--5-----1--3--5-----1--3--5-----5-----------5-----------0--3--5-----0--3--5-----0--3--5-----
E|-----3-----------3--------------------------------------------------------------------------

Stave 4:

E|--------------------------------------------------------------------
B|-----------------------------------------------------------------2--
G|-----------------------------------------------------------------2--
D|--5-----3--2--5-----3--2-----------------------------------------2--
A|-----3-----------3--------5--0--1--3--5--0--1--3--5--0--1--3--5-----
E|--------------------------------------------------------------------

Stave 5:

E|--------------------------------------------------------------------------------------------------
B|--10-----6--8--10-----6--8-----------------------------------------8-----5--6--5------------------
G|------7------------7--------9-----5--7--9-----5--7--9-----5--7--9-----5-----------5--7------------
D|-------------------------------7-----------7-----------7--------------------------------7--8--10--
A|--------------------------------------------------------------------------------------------------
E|--------------------------------------------------------------------------------------------------

Stave 6:

E|-------------------------------10-----6--8--10-----5--6--8-----5--6--8-----3--5--6-----3--5--6-----
B|-----------------------------------6------------6-----------6-----------6-----------3-----------3--
G|--7------------7------------7----------------------------------------------------------------------
D|-----7--8--10-----7--8--10-------------------------------------------------------------------------
A|---------------------------------------------------------------------------------------------------
E|---------------------------------------------------------------------------------------------------

Stave 7:

E|--1--3--5-----1--3--5-----1--3-----1--3--1-----1-----------------------------------------------
B|-----------3-----------3-----------------------------8--6--8--5--8-----10--8--10--6--10--6-----
G|--------------------------------3-----------3-----5-----------------6-----------------------7--
D|-----------------------------------------------------------------------------------------------
A|-----------------------------------------------------------------------------------------------
E|-----------------------------------------------------------------------------------------------

Stave 8:

E|--3--5--6-----1--3--5-----1--3--5-----1--3--1-----1--3--1-----1-----------10--
B|-----------3-----------3-----------3-----------------------------5--2--7--7---
G|-----------------------------------------------3-----------3-----5--2--7--7---
D|--------------------------------------------------------------------2--0--0---
A|------------------------------------------------------------------------------
E|------------------------------------------------------------------------------

http://www.guitartabcreator.com
Guitar Tab Creator is intended to store guitar tab created through the tool. It currently does not support in-line text editing. Any text you place in here will be lost. If you need to comment on your tab, please use the "Tab Notes" section located below.