Jingle Bells (G Major 1st position)

01234567891011121314151617181920212223
E
B
G
D
A
E
B
0 1 2 3 4 5 6 7 8 9 10 11 12 13 14 15 16 17 18 19 20 21 22 23
(/) Slide Up  (\) Slide Down  (h) Hammer On  (p) Pull Off  (b) Bend (r) Release (v) Vibrato

Stave 1:

E|-----------------------|--------------------|--------------------------|-----------------------
B|--0--0--0-----0--0--0--|--0--3-----------0--|--1--1--1-----1--1--0--0--|--0--------0--------3--
G|-----------------------|--------0-----2-----|--------------------------|-----2--2-----2--------
D|-----------------------|--------------------|--------------------------|--------------0--------
A|-----------------------|--------3-----------|--3-----------------------|--0--------------------
E|--3--------------------|--3--------------3--|-----------------3--------|-----------------------

Stave 2:

E|-----------------------|--------------------|--------------------------|-----------------
B|--0--0--0-----0--0--0--|--0--3-----------0--|--1--1--1-----1--1--0--0--|--3--3--0--------
G|-----------------------|--------0-----2-----|--------------------------|-----------2--0--
D|-----------------------|--------------------|--------------------------|--0--------------
A|-----------------------|--------3-----------|--3-----------------------|-----------------
E|--3--------------------|--3-----------3-----|-----------------3--------|--------------3--

Stave 3:

E|-----------------|--------------------|-----------------|-----------------
B|-----0-----------|--------0-----------|-----1--0--------|--3--3--1-----0--
G|--------2--0-----|-----------2--0-----|-----------2-----|-----------2-----
D|--0-----------0--|--0--0-----------2--|--2-----------4--|-----------------
A|-----------------|--------------------|-----------------|-----------------
E|-----------------|--------------------|-----------------|-----------------

Stave 4:

E|-----------------|--------------------|--------------------------|--0--------------
B|-----0-----------|--------0-----------|--------1--0-----3--3--3--|-----3--1--------
G|--------2--0-----|-----------2--0-----|--------------2-----------|-----------2--0--
D|--0-----------0--|--0--0-----------2--|--2--2--------------------|-----------------
A|-----------------|--------------------|--------------------------|-----------------
E|-----------------|--------------------|--------------------------|-----------------

							http://www.guitartabcreator.com
Chords

Instruments
{"strings":[[[".",".",".","_",".",".",".","|",".",".",".","_",".",".","|",".",".",".","_",".",".",".",".","|",".",".",".",".",".","_","."],[0,0,0,"_",0,0,0,"|",0,3,".","_",".",0,"|",1,1,1,"_",1,1,0,0,"|",0,".",".",0,".","_",3],[".",".",".","_",".",".",".","|",".",".",0,"_",2,".","|",".",".",".","_",".",".",".",".","|",".",2,2,".",2,"_","."],[".",".",".","_",".",".",".","|",".",".",".","_",".",".","|",".",".",".","_",".",".",".",".","|",".",".",".",".",0,"_","."],[".",".",".","_",".",".",".","|",".",".",3,"_",".",".","|",3,".",".","_",".",".",".",".","|",0,".","_",".",".","_","."],[3,".",".","_",".",".",".","|",3,".",".","_",".",3,"|",".",".",".","_",".",3,".",".","|",".",".",".",".",".","_","."]],[[".",".",".","_",".",".",".","|",".",".",".","_",".",".","|",".",".",".","_",".",".",".",".","|",".",".",".",".","."],[0,0,0,"_",0,0,0,"|",0,3,".","_",".",0,"|",1,1,1,"_",1,1,0,0,"|",3,3,0,".","."],[".",".",".","_",".",".",".","|",".",".",0,"_",2,".","|",".",".",".","_",".",".",".",".","|",".",".",".",2,0],[".",".",".","_",".",".",".","|",".",".",".","_",".",".","|",".",".",".","_",".",".",".",".","|",0,".",".",".","."],[".",".",".","_",".",".",".","|",".",".",3,"_",".",".","|",3,".",".","_",".",".",".",".","|",".",".",".",".","."],[3,".",".","_",".",".",".","|",3,".",".","_",3,".","|",".",".",".","_",".",3,".",".","|",".",".",".",".",3]],[[".",".",".",".",".","|",".",".",".",".",".",".","|",".",".",".",".",".","|",".",".",".",".","."],[".",0,".",".",".","|",".",".",0,".",".",".","|",".",1,0,".",".","|",3,3,1,".",0],[".",".",2,0,".","|",".",".",".",2,0,".","|",".",".",".",2,".","|",".",".",".",2,"."],[0,".",".",".",0,"|",0,0,".",".",".",2,"|",2,".",".",".",4,"|",".",".",".",".","."],[".",".",".",".",".","|",".",".",".",".",".",".","|",".",".",".",".",".","|",".",".",".",".","."],[".",".",".",".",".","|",".",".",".",".",".",".","|",".",".",".",".",".","|",".",".",".",".","."]],[[".",".",".",".",".","|",".",".",".",".",".",".","|",".",".",".",".",".",".",".",".","|",0,".",".",".","."],[".",0,".",".",".","|",".",".",0,".",".",".","|",".",".",1,0,".",3,3,3,"|",".",3,1,".","."],[".",".",2,0,".","|",".",".",".",2,0,".","|",".",".",".",".",2,".",".",".","|",".",".",".",2,0],[0,".",".",".",0,"|",0,0,".",".",".",2,"|",2,2,".",".",".",".",".",".","|",".",".",".",".","."],[".",".",".",".",".","|",".",".",".",".",".",".","|",".",".",".",".",".",".",".",".","|",".",".",".",".","."],[".",".",".",".",".","|",".",".",".",".",".",".","|",".",".",".",".",".",".",".",".","|",".",".",".",".","."]]],"numberofstrings":6,"notes":["E","B","G","D","A","E","B"],"capo":0,"stringnotes":["E4","B3","G3","D3","A2","E2"],"comments":["Stave 1:","Stave 2:","Stave 3:","Stave 4:"],"timing":[["W","W","W","W","W","W","W",null,"W","W","W","W","W","W",null,"W","W","W","W","W","W","W","W",null,"W","W","W","W","W","W","W","W"],["W","W","W","W","W","W","W",null,"W","W","W","W","W","W",null,"W","W","W","W","W","W","W","W",null,"W","W","W","W","W"],["W","W","W","W","W",null,"W","W","W","W","W","W",null,"W","W","W","W","W",null,"W","W","W","W","W"],["W","W","W","W","W",null,"W","W","W","W","W","W",null,"W","W","W","W","W","W","W","W",null,"W","W","W","W","W"]],"timingvisible":false,"tabcounter":27,"stave":2,"totalstaves":4,"instrument":"6guitar","selectedtuning":"6_standard","version":"13"}

Member for

7 months 4 weeks
About Me
A musician from India
Submitted by yrohan19@gmail.com on Wed, 2022-05-18 07:00