Sound will begin in 5 seconds

come fly with me

Chords
01234567891011121314151617181920212223
E
B
G
D
A
E
B
0 1 2 3 4 5 6 7 8 9 10 11 12 13 14 15 16 17 18 19 20 21 22 23
Song Science #1: How Pros Use 6 Chords to Write Hit Songs
(/) Slide Up  (\) Slide Down  (h) Hammer On  (p) Pull Off  (b) Bend (r) Release (v) Vibrato

Stave 1:

E|-----------------|-----------------|-----------------|--------------0--|--
B|-----------------|-----------------|-----------------|-----------------|--
G|-----------------|-----------------|-----------------|-----------------|--
D|--7--7--5--4-----|-----------------|-----------------|-----------------|--
A|--------------7--|--4--4--1--------|--2--2--4--5--6--|-----------------|--
E|-----------------|-----------3--0--|-----------------|--0--0--1--2--4--|--

Stave 2:

E|--7-----5--|--7--5--7--5-----|--------------|-------------0--|--4--2--2--4--3--|--
B|--9-----7--|--5-----4--4--3--|--------------|--1h2--------0--|--2--------------|--
G|-----------|--------5--5--2--|--------------|--1-------------|--2--------------|--
D|-----------|--6-----4--4--4--|--------------|--0-------------|--2--------------|--
A|--0--0--0--|--4-----------2--|--2--4--5--6--|----------------|--0--------------|--
E|-----------|-----------------|--------------|--0----1--2--4--|-----------------|--

Stave 3:

E|--2--0--0--------|--0-------5--5--|--5--------------|-------0--------|-----5--------|--
B|--3-----7--7--6--|----------7-----|--6--------------|--0h2-----------|--------------|--
G|--0-----6--------|--6--5/7--6-----|--4--------------|--1-------2--4--|--5--5--2--4--|--
D|--0-----5--------|--4-------7-----|--5--5--3--2--0--|--2-------2-----|--4--4--2-----|--
A|--2--------------|--5-------5-----|-----------------|----------4-----|--5--5--0-----|--
E|-----------------|----------------|-----------------|--0-------2-----|--------------|--

Stave 4:

E|--------------|----------------------0--|--
B|--0-----------|-----------------1h2-----|--
G|--4-----4--3--|--3--2-----2-----1-------|--
D|--3--3--3--2--|--2--1--1--1--1--0-------|--
A|--4-----------|--3--2-------------------|--
E|--------3--2--|-----------1-----0-------|--

Stave 5:

E|-----------------|--------------5--5--|--5-----------|--5--------------|-----------|--
B|--2-----3-----2--|--------2--5--5--5--|--6--8--6--8--|--6--6-----------|-----------|--
G|--2--2--------2--|--2--4--------5--5--|--6-----------|--7--------------|-----3--3--|--
D|--2-----4--4--2--|--------------3--3--|--5-----------|--7--------------|-----3--3--|--
A|--0-----5-----0--|--------------------|--------------|-----------------|-----------|--
E|-----------------|--------------------|--------------|--6-----6--5--4--|--3-----3--|--

Stave 6:

E|--3--------------|-----------------|--1-----------------|--------------|--5--5--5--|--
B|--3--------------|--1--------------|--3-----------------|-----------6--|--5--5--6--|--
G|--3--------------|--3--------------|--2-----------------|--2--3--5-----|--5--5--6--|--
D|-----------------|--2--------0--2--|--3--3--2--0--------|--------------|--3--3--5--|--
A|--------------2--|--3--3--4--------|--------------3-----|--------------|-----------|--
E|--3--3--5--6-----|-----------------|-----------------3--|--------------|-----------|--

Stave 7:

E|--5--3--5--6--7--|--7-----7--7-----7-----|--------|--7--7--6--5--4--|--------------0--
B|--6--4--6--8--8--|--9--3--5--5-----5-----|--0-----|--9--9--8--6--5--|-----------------
G|-----------------|--8--4--6--6-----6-----|--2-----|-----------------|-----------------
D|-----------------|--9--3--4--4--4-----4--|--2-----|-----------------|-----------------
A|-----------------|--7--4-----------------|--------|-----------------|-----------------
E|-----------------|-----------------------|--2--2--|-----------------|--0--0--1--2--4--

Stave 8:

E|-----------2--5--|--9------------9---------|--5--------------------------
B|--2--3--5--4--4--|--9--7--9--10-----7--10--|--5--------------------------
G|--1--5--4--3--3--|--8--8-----7------7------|--6--------------------------
D|--2--4--3--2--2--|--7--7-----7------6------|--7--7--4--------------------
A|--0--------------|-------------------------|-----------7--4--------------
E|-----4--3--2--2--|-------------------------|-----------------0--2--4--5--

http://www.guitartabcreator.com
Guitar Tab Creator is intended to store guitar tab created through the tool. It currently does not support in-line text editing. Any text you place in here will be lost. If you need to comment on your tab, please use the "Tab Notes" section located below.