LOS AHAPIS - EL AGUAJAL

Chords

01234567891011121314151617181920212223
E
B
G
D
A
E
B
0 1 2 3 4 5 6 7 8 9 10 11 12 13 14 15 16 17 18 19 20 21 22 23
(/) Slide Up  (\) Slide Down  (h) Hammer On  (p) Pull Off  (b) Bend (r) Release (v) Vibrato

Stave 1:

E|-----------------------------------------------------------------2--
B|--------------------------------------------------------------2-----
G|-----------------------------------------------------------2--------
D|-----------4-----------------------2--------------------4-----------
A|-----0--4-----4-----------------2-----2-----------0--4--------------
E|--2-----------------------0--4-----------------2--------------------

Stave 2:

E|--4--5--5--5--7--7--7--9--9--9--12--12------
B|--------------------------------------------
G|----------------------------------------11--
D|--------------------------------------------
A|--------------------------------------------
E|--------------------------------------------

Stave 3:

E|--------------14--12--------------12------12--------------
B|--14--14--14----------14--12--14------14------14--12--10--
G|----------------------------------------------------------
D|----------------------------------------------------------
A|----------------------------------------------------------
E|----------------------------------------------------------

Stave 4:

E|--------------14--12--------------------------------------
B|--14--14--14----------14--12--12--14--12--14--12----------
G|--------------------------------------------------14--11--
D|----------------------------------------------------------
A|----------------------------------------------------------
E|----------------------------------------------------------

Stave 5:

E|-----------------------------------------------------
B|-----------7--5-----------5-----5--------------------
G|--6--6--6--------6--4--6-----6-----6--4--------------
D|-----------------------------------------7-----------
A|-----------------------------------------------------
E|-----------------------------------------------------

Stave 6:

E|--------------------------------------------------------------2--0-----------0-----0-----------------------------------
B|-----------7--5--------------------------------------2--2--2--------2-----2-----2-----2--------------2-----2-----------
G|--6--6--6--------6--4--4--6--4--6--4--6--------------------------------4-----------------4--2-----4-----4-----4--2-----
D|-----------------------------------------7--4-----------------------------------------------------------------------4--
A|-----------------------------------------------------------------------------------------------------------------------
E|-----------------------------------------------------------------------------------------------------------------------

Stave 7:

E|--------------9------9---------------------------9------9--------------9--
B|--10--10--10-----10-----9------------10--10--10-----10-----10--12--12-----
G|---------------------------10---------------------------------------------
D|--------------------------------------------------------------------------
A|--------------------------------------------------------------------------
E|--------------------------------------------------------------------------

Stave 8:

E|-----------------------------------------------------------------------------------------------------------
B|-----------------------------------------------------------------------------3-----3-----------------3-----
G|-----------6-----6-----------------------6-----6-----------6--------3--3--3-----3-----3-----3--3--3--------
D|--7--7--7-----7-----7-----------7--7--7-----7-----7--7--9--------------------------------5-----------------
A|-----------------------9-----------------------------------------------------------------------------------
E|-----------------------------------------------------------------------------------------------------------

							http://www.guitartabcreator.com
Instruments
{"strings":[[[".",".",".",".",".","_","_","_",".",".",".",".",".","_","_",".",".",".",".",".",".",2],[".",".",".",".",".","_","_","_",".",".",".",".",".","_","_",".",".",".",".",".",2,"."],[".",".",".",".",".","_","_","_",".",".",".",".",".","_","_",".",".",".",".",2,".","."],[".",".",".",4,".","_","_","_",".",".",".",2,".","_","_",".",".",".",4,".",".","."],[".",0,4,".",4,"_","_","_",".",".",2,".",2,"_","_",".",0,4,".",".",".","."],[2,".",".",".",".","_","_","_",0,4,".",".",".","_","_",2,".",".",".",".",".","."]],[[4,5,5,5,7,7,7,9,9,9,12,12,"."],[".",".",".",".",".",".",".",".",".",".",".",".","."],[".",".",".",".",".",".",".",".",".",".",".",".",11],[".",".",".",".",".",".",".",".",".",".",".",".","."],[".",".",".",".",".",".",".",".",".",".",".",".","."],[".",".",".",".",".",".",".",".",".",".",".",".","."]],[[".",".",".",14,12,".",".",".",12,".",12,".",".","."],[14,14,14,".",".",14,12,14,".",14,".",14,12,10],[".",".",".",".",".",".",".",".",".",".",".",".",".","."],[".",".",".",".",".",".",".",".",".",".",".",".",".","."],[".",".",".",".",".",".",".",".",".",".",".",".",".","."],[".",".",".",".",".",".",".",".",".",".",".",".",".","."]],[[".",".",".",14,12,".",".",".",".",".",".",".",".","."],[14,14,14,".",".",14,12,12,14,12,14,12,".","."],[".",".",".",".",".",".",".",".",".",".",".",".",14,11],[".",".",".",".",".",".",".",".",".",".",".",".",".","."],[".",".",".",".",".",".",".",".",".",".",".",".",".","."],[".",".",".",".",".",".",".",".",".",".",".",".",".","."]],[[".",".",".",".",".",".",".",".",".",".",".",".",".",".","_","_","_"],[".",".",".",7,5,".",".",".",5,".",5,".",".",".","_","_","_"],[6,6,6,".",".",6,4,6,".",6,".",6,4,".","_","_","_"],[".",".",".",".",".",".",".",".",".",".",".",".",".",7,"_","_","_"],[".",".",".",".",".",".",".",".",".",".",".",".",".",".","_","_","_"],[".",".",".",".",".",".",".",".",".",".",".",".",".",".","_","_","_"]],[[".",".",".",".",".",".",".",".",".",".",".",".",".",".",".","_","_",".",".",".",2,0,".",".",".",0,".",0,".",".",".","_",".",".",".",".",".",".","."],[".",".",".",7,5,".",".",".",".",".",".",".",".",".",".","_","_",2,2,2,".",".",2,".",2,".",2,".",2,".",".","_",".",2,".",2,".",".","."],[6,6,6,".",".",6,4,4,6,4,6,4,6,".",".","_","_",".",".",".",".",".",".",4,".",".",".",".",".",4,2,"_",4,".",4,".",4,2,"."],[".",".",".",".",".",".",".",".",".",".",".",".",".",7,4,"_","_",".",".",".",".",".",".",".",".",".",".",".",".",".",".","_",".",".",".",".",".",".",4],[".",".",".",".",".",".",".",".",".",".",".",".",".",".",".","_","_",".",".",".",".",".",".",".",".",".",".",".",".",".",".","_",".",".",".",".",".",".","."],[".",".",".",".",".",".",".",".",".",".",".",".",".",".",".","_","_",".",".",".",".",".",".",".",".",".",".",".",".",".",".","_",".",".",".",".",".",".","."]],[[".",".",".",9,".",9,".",".","_","_",".",".",".",9,".",9,".",".",".",9],[10,10,10,".",10,".",9,".","_","_",10,10,10,".",10,".",10,12,12,"."],[".",".",".",".",".",".",".",10,"_","_",".",".",".",".",".",".",".",".",".","."],[".",".",".",".",".",".",".",".","_","_",".",".",".",".",".",".",".",".",".","."],[".",".",".",".",".",".",".",".","_","_",".",".",".",".",".",".",".",".",".","."],[".",".",".",".",".",".",".",".","_","_",".",".",".",".",".",".",".",".",".","."]],[[".",".",".",".",".",".",".",".","_","_",".",".",".",".",".",".",".",".",".",".","_","_",".",".",".",".",".",".",".",".",".",".",".",".","_"],[".",".",".",".",".",".",".",".","_","_",".",".",".",".",".",".",".",".",".",".","_","_",".",".",".",3,".",3,".",".",".",".",".",3,"_"],[".",".",".",6,".",6,".",".","_","_",".",".",".",6,".",6,".",".",".",6,"_","_",3,3,3,".",3,".",3,".",3,3,3,".","_"],[7,7,7,".",7,".",7,".","_","_",7,7,7,".",7,".",7,7,9,".","_","_",".",".",".",".",".",".",".",5,".",".",".",".","_"],[".",".",".",".",".",".",".",9,"_","_",".",".",".",".",".",".",".",".",".",".","_","_",".",".",".",".",".",".",".",".",".",".",".",".","_"],[".",".",".",".",".",".",".",".","_","_",".",".",".",".",".",".",".",".",".",".","_","_",".",".",".",".",".",".",".",".",".",".",".",".","_"]]],"numberofstrings":6,"notes":["E","B","G","D","A","E","B"],"capo":0,"stringnotes":["E4","B3","G3","D3","A2","E2"],"comments":["Stave 1:","Stave 2:","Stave 3:","Stave 4:","Stave 5:","Stave 6:","Stave 7:","Stave 8:"],"timing":[["W","W","W","W","W",null,null,null,"W","W","W","W","W",null,null,"W","W","W","W","W","W","W"],["W","W","W","W","W","W","W","W","W","W","W","W","W"],["W","W","W","W","W","W","W","W","W","W","W","W","W","W"],["W","W","W","W","W","W","W","W","W","W","W","W","W","W"],["W","W","W","W","W","W","W","W","W","W","W","W","W","W"],["W","W","W","W","W","W","W","W","W","W","W","W","W","W","W",null,null,"W","W","W","W","W","W","W","W","W","W","W","W","W","W",null,"W","W","W","W","W","W","W","W"],["W","W","W","W","W","W","W","W",null,null,"W","W","W","W","W","W","W","W","W","W"],["W","W","W","W","W","W","W","W",null,null,"W","W","W","W","W","W","W","W","W","W",null,null,"W","W","W","W","W","W","W","W","W","W","W","W","W","W","W","W","W","W"]],"timingvisible":false,"tabcounter":35,"stave":7,"totalstaves":8,"instrument":"6guitar","selectedtuning":"6_standard","version":"13"}
Submitted by You Guitarra on Mon, 2020-06-29 04:14