AYRANPITO MARKAHUASI

Chords

01234567891011121314151617181920212223
E
B
G
D
A
E
B
0 1 2 3 4 5 6 7 8 9 10 11 12 13 14 15 16 17 18 19 20 21 22 23
(/) Slide Up  (\) Slide Down  (h) Hammer On  (p) Pull Off  (b) Bend (r) Release (v) Vibrato

Stave 1:

E|--7--9--9-----------------7--7--9-----------
B|-----------9--9--7--9--9-----------9--7-----
G|-----------------------------------------6--
D|--------------------------------------------
A|--------------------------------------------
E|--------------------------------------------

Stave 2:

E|--------------------------------------
B|--------------------------------------
G|--4--4--6--6--6--4--6--6--9--9--6--4--
D|--------------------------------------
A|--------------------------------------
E|--------------------------------------

Stave 3:

E|--9--12--12--9--9--7--9--9--12--12--9--
B|---------------------------------------
G|---------------------------------------
D|---------------------------------------
A|---------------------------------------
E|---------------------------------------

Stave 4:

E|-----------------------------------------
B|-----------------------------------------
G|-----------------------------------------
D|--6--6--6--6--4--6--6--9--9--6--4--6-----
A|--------------------------------------4--
E|-----------------------------------------

Stave 5:

E|--------------7--9--7--9--7-----------------------------------------------------
B|--5--7--9--------------------------------------------------------7--------------
G|-----------9-----------------8--8--8--8--9--8--9--8--6--8--8--8-----8--6--6--6--
D|--------------------------------------------------------------------------------
A|--------------------------------------------------------------------------------
E|--------------------------------------------------------------------------------

							http://www.guitartabcreator.com
Instruments
{"strings":[[[7,9,9,".",".",".",".",".",7,7,9,".",".","."],[".",".",".",9,9,7,9,9,".",".",".",9,7,"."],[".",".",".",".",".",".",".",".",".",".",".",".",".",6],[".",".",".",".",".",".",".",".",".",".",".",".",".","."],[".",".",".",".",".",".",".",".",".",".",".",".",".","."],[".",".",".",".",".",".",".",".",".",".",".",".",".","."]],[[".",".",".",".",".",".",".",".",".",".",".","."],[".",".",".",".",".",".",".",".",".",".",".","."],[4,4,6,6,6,4,6,6,9,9,6,4],[".",".",".",".",".",".",".",".",".",".",".","."],[".",".",".",".",".",".",".",".",".",".",".","."],[".",".",".",".",".",".",".",".",".",".",".","."]],[[9,12,12,9,9,7,9,9,12,12,9],[".",".",".",".",".",".",".",".",".",".","."],[".",".",".",".",".",".",".",".",".",".","."],[".",".",".",".",".",".",".",".",".",".","."],[".",".",".",".",".",".",".",".",".",".","."],[".",".",".",".",".",".",".",".",".",".","."]],[[".",".",".",".",".",".",".",".",".",".",".",".","."],[".",".",".",".",".",".",".",".",".",".",".",".","."],[".",".",".",".",".",".",".",".",".",".",".",".","."],[6,6,6,6,4,6,6,9,9,6,4,6,"."],[".",".",".",".",".",".",".",".",".",".",".",".",4],[".",".",".",".",".",".",".",".",".",".",".",".","."]],[[".",".",".",".",7,9,7,9,7,".",".",".",".",".",".",".",".",".",".",".",".",".",".",".",".","."],[5,7,9,".",".",".",".",".",".",".",".",".",".",".",".",".",".",".",".",".",".",7,".",".",".","."],[".",".",".",9,".",".",".",".",".",8,8,8,8,9,8,9,8,6,8,8,8,".",8,6,6,6],[".",".",".",".",".",".",".",".",".",".",".",".",".",".",".",".",".",".",".",".",".",".",".",".",".","."],[".",".",".",".",".",".",".",".",".",".",".",".",".",".",".",".",".",".",".",".",".",".",".",".",".","."],[".",".",".",".",".",".",".",".",".",".",".",".",".",".",".",".",".",".",".",".",".",".",".",".",".","."]]],"numberofstrings":6,"notes":["E","B","G","D","A","E","B"],"capo":0,"stringnotes":["E4","B3","G3","D3","A2","E2"],"comments":["Stave 1:","Stave 2:","Stave 3:","Stave 4:","Stave 5:"],"timing":[["W","W","W","W","W","W","W","W","W","W","W","W","W","W"],["W","W","W","W","W","W","W","W","W","W","W","W"],["W","W","W","W","W","W","W","W","W","W","W"],["W","W","W","W","W","W","W","W","W","W","W","W","W"],["W","W","W","W","W","W","W","W","W","W","W","W","W","W","W","W","W","W","W","W","W","W","W","W","W","W"]],"timingvisible":false,"tabcounter":26,"stave":4,"totalstaves":5,"instrument":"6guitar","selectedtuning":"6_standard","version":"13"}
Submitted by You Guitarra on Fri, 2020-07-31 05:11