Sound will begin in 5 seconds

Just a little something

01234567891011121314151617181920212223
E
B
G
D
A
E
B
0 1 2 3 4 5 6 7 8 9 10 11 12 13 14 15 16 17 18 19 20 21 22 23
Song Science #1: How Pros Use 6 Chords to Write Hit Songs
(/) Slide Up  (\) Slide Down  (h) Hammer On  (p) Pull Off  (b) Bend (r) Release (v) Vibrato

Stave 1:

E|---------------------------------------------------------
B|--------------------------------8--10--12--10--8--10--5--
G|--0--5-----0--4-----0--4/9--11---------------------------
D|---------------------------------------------------------
A|---------------------------------------------------------
E|---------------------------------------------------------

Stave 2:

E|--------------------3--5--3--1--3--0-----
B|--3--5--3--1--3--0-----------------------
G|-----------------------------------------
D|-----------------------------------------
A|-----------------------------------------
E|-----------------------------------------

Stave 3:

E|--9--7-----------7--5-----9--7-----------7--9--12--9--7--9--7-----5--3--0--
B|--------9--7--5-----------------9--7--5------------------------------------
G|---------------------------------------------------------------------------
D|---------------------------------------------------------------------------
A|---------------------------------------------------------------------------
E|---------------------------------------------------------------------------

Stave 4:

E|-----------------------------------------------
B|--3--1-----------------------------------------
G|--------2-----0--------------------------------
D|-----------------2-----0--2-----5--2-----0--2--
A|-----------------------------------------------
E|-----------------------------------------------

Stave 5:

E|-----------------------------3--5--7--9--12--15--
B|--------------------5--7-------------------------
G|-----------5--7----------------------------------
D|--7--9-------------------------------------------
A|-------------------------------------------------
E|-------------------------------------------------

Stave 6:

E|--12----------7--9--7--------
B|------15--12-----------7--9--
G|-----------------------------
D|-----------------------------
A|-----------------------------
E|-----------------------------

http://www.guitartabcreator.com
Guitar Tab Creator is intended to store guitar tab created through the tool. It currently does not support in-line text editing. Any text you place in here will be lost. If you need to comment on your tab, please use the "Tab Notes" section located below.