Sound will begin in 5 seconds

Django Reinhardt - Brazil

01234567891011121314151617181920212223
E
B
G
D
A
E
B
0 1 2 3 4 5 6 7 8 9 10 11 12 13 14 15 16 17 18 19 20 21 22 23
Song Science #1: How Pros Use 6 Chords to Write Hit Songs
(/) Slide Up  (\) Slide Down  (h) Hammer On  (p) Pull Off  (b) Bend (r) Release (v) Vibrato

Stave 1:

E|--------------------------------------------------
B|--------------------------------------------------
G|--7--8--9--7--8--9--9--8--7--8--9--7--8--9--9--8--
D|--------------------------------------------------
A|--------------------------------------------------
E|--------------------------------------------------

Stave 2:

E|-----------|-------------------------------
B|--8h10h12--|--15--15--12--12--10--10--8----
G|-----------|-------------------------------
D|-----------|-------------------------------
A|-----------|-------------------------------
E|-----------|-------------------------------

Stave 3:

E|---------------------------------|------------------------
B|--15--15--12--12--10--10--8--12--|-------------12---------
G|---------------------------------|--11--9--11------11--9--
D|---------------------------------|------------------------
A|---------------------------------|------------------------
E|---------------------------------|------------------------

Stave 4:

E|--------------------------------------------------
B|--------------------------------------------------
G|--7--8--9--7--8--9--9--8--7--8--9--7--8--9--9--8--
D|--------------------------------------------------
A|--------------------------------------------------
E|--------------------------------------------------

Stave 5:

E|-------|---------------------------------
B|--12v--|--15--15--12--12--10--10--8--10--
G|-------|---------------------------------
D|-------|---------------------------------
A|-------|---------------------------------
E|-------|---------------------------------

Stave 6:

E|---------------------------------|------------------------
B|--15--15--12--12--10--10--8--12--|-------------12---------
G|---------------------------------|--11--9--11------11--9--
D|---------------------------------|------------------------
A|---------------------------------|------------------------
E|---------------------------------|------------------------

Stave 7:

E|----------------------|----------------------------------|----------------------------------
B|--15--15--13--12--15--|--15--15--13--12--11--12--13--15--|--15--15--13--12--11--10--12--13--
G|----------------------|----------------------------------|----------------------------------
D|----------------------|----------------------------------|----------------------------------
A|----------------------|----------------------------------|----------------------------------
E|----------------------|----------------------------------|----------------------------------

Stave 8:

E|---------------------------------------------------------------------------------------
B|--13v----13--13--12--10--8--10v----8--10--12--13/15--12--10--8-----------10--------12--
G|----------------------------------------------------------------9----11--------12------
D|---------------------------------------------------------------------------------------
A|---------------------------------------------------------------------------------------
E|---------------------------------------------------------------------------------------

Stave 9:

E|------------------------
B|-------------12---------
G|--11--9--11------11--9--
D|------------------------
A|------------------------
E|------------------------

Stave 10:

E|------|--------------------------
B|------|--------------------------
G|--4v--|--7--7--4--4--2--2--0--2--
D|------|--------------------------
A|------|--------------------------
E|------|--------------------------

Stave 11:

E|--------------------------|--------------------
B|--------------------------|--------------------
G|--7--7--4--4--2--2--0--4--|-----------4--------
D|--------------------------|--4--2--4-----4--2--
A|--------------------------|--------------------
E|--------------------------|--------------------

Stave 12:

E|------|--------------------------
B|--7v--|--7--7--5--4--3--4--5--7--
G|------|--------------------------
D|------|--------------------------
A|------|--------------------------
E|------|--------------------------

Stave 13:

E|--------------------------------------------------------------------------------------------------
B|--------------------------------------------------------------------------------------------------
G|--7--7--5--4--3--2--4--5----5v----5--5--4--4--2--2--0--2----0--2--4--5/7--4--2--0--------2-----4--
D|-----------------------------------------------------------------------------------2--4-----5-----
A|--------------------------------------------------------------------------------------------------
E|--------------------------------------------------------------------------------------------------

Stave 14:

E|--------------------
B|--------------------
G|-----------4--------
D|--4--2--4-----4--2--
A|--------------------
E|--------------------

Stave 15:

E|--------------------------
B|--------------------------
G|--7--8--9--7--8--9--9--8--
D|--------------------------
A|--------------------------
E|--------------------------

http://www.guitartabcreator.com
Guitar Tab Creator is intended to store guitar tab created through the tool. It currently does not support in-line text editing. Any text you place in here will be lost. If you need to comment on your tab, please use the "Tab Notes" section located below.