Tobee Paik Like That Cover

Chords

01234567891011121314151617181920212223
E
B
G
D
A
E
B
0 1 2 3 4 5 6 7 8 9 10 11 12 13 14 15 16 17 18 19 20 21 22 23
(/) Slide Up  (\) Slide Down  (h) Hammer On  (p) Pull Off  (b) Bend (r) Release (v) Vibrato

Stave 1:

E|-----------------------------------------------------6-----------------------------------------------------------------------------
B|----------------------------------------------11-----9-----------------------------------------------------------------------------
G|--4--4--5--7--------------------------10--12---------0-----------------------------------------------------------------------------
D|--0-----------5/8-----3/9--9--10--12-----------------0-----------------------------------------------------------------------5--6--
A|--0--------------------------------------------------0-----------------------------------------3--3--3--3--6--6--6--6--5--6--------
E|-----------------------------------------------------------19\4--4--4--4--3--3--3--3--3--3--3--------------------------------------

Stave 2:

E|-----------------------------------------------------------------------------------------------------------------
B|-----------------------------------------------------------------------------------------------------------------
G|-----------------------------------5--4--3-----------------------------------------------------------5--4--2-----
D|-----------------------------------0--0--0----------------------------5-------8----------------------0--0--0-----
A|-----------------------------------3--2--1--6--------6-----5-----1/3-----3/6-----6----------6-----5--3--2--1--6--
E|--4--4--4--4--3--3--3--3--3--3--3-----------------4-----3-----3------------------------1/4-----3-----------------

Stave 3:

E|-----------------------------------------------------------------------------------------------------------------------------------
B|-----------------------------------------------------------------------------------------------------------------------------------
G|-----------------------------------------------------------------------------------------------------------------------------------
D|-----------------------------------------------------------------5--6--------------------------------------------------------------
A|-----------------------------------3--3--3--3--6--6--6--6--5--6-----------------------------------------------6--8--------6--8/10--
E|--4--4--4--4--3--3--3--3--3--3--3--------------------------------------4--4--4--4--3--3--3--3--3--3--3--6--8--------6--8-----------

Stave 4:

E|------------------------------------------------------------------------------------------------------------------
B|------------------------------------------------------------------------------------------------------------------
G|------------------------------------------------------------------------------------------------------------------
D|---------------------------------------------------------------------------5--6-----------------------------------
A|--10--9--8-----------------------------------3--3--3--3--6--6--6--6--5--6-----------------------------------------
E|--8---7--6--4--4--4--4--3--3--3--3--3--3--3--------------------------------------4--4--4--4--3--3--3--3--3--3--3--

Stave 5:

E|----------------------------------------------------------------------------------------------------------13--
B|--------------------------------------------------------------------------------------------------11--13------
G|---------------------------------------10\5-----4--5--5/7---------------------------------10--12----------12--
D|-----------------------------------------------------------5-----5/8-----5/10--9--10--12----------------------
A|--------6--8--------6--8/10--10--9--8-------------------------------------------------------------------------
E|--6--8--------6--8-----------8---7--6-------------------------------------------------------------------------

Stave 6:

E|--------------------------------------------------------------------------------------------------------------------
B|--------------------------------------------------------------------------------------------------------------------
G|--------------------------------------------------------------------------------------------------------5--4--3-----
D|-----------------------------------------------------------------5--6-----------------------------------0--0--0-----
A|-----------------------------------3--3--3--3--6--6--6--6--5--6-----------------------------------------3--2--1--6--
E|--4--4--4--4--3--3--3--3--3--3--3--------------------------------------4--4--4--4-----3--3--3--3--3--3--------------

Stave 7:

E|---------------------------------------------------------------------------------------------------------------------------
B|---------------------------------------------------------------------------------------------------------------------------
G|-----------------------------------------------5--4--3--------------------10--10-------------------------------------------
D|----------------------5-------8----------------0--0--0---------------------------------------------------------------------
A|-----6-----5-----1/3-----3/6-----6-------6-----3--2--1--6------------------------------------------------------------------
E|--4-----3-----3---------------------1/4-----3-----------------4--4--6--4----------3--3--3--3--3/8--8--8--8--8--6--6--6--6--

Stave 8:

E|-----------------------------------------------------------------------------------------------------------------
B|-----------------------------------------------------------------------------------------------------------------
G|-----------------------------------------------------------------------------------------------------------------
D|------------------------------------------------8--10---------8--10----------------------------------------------
A|--------6--8-----------6--------------5--8--10---------8--10---------8--10--10--9--8-----------6--------------5--
E|--6--8--------4--4--4--4--3--3--3--3--3-------------------------------------8---7--6--4--4--4--4--3--3--3--3--3--

Stave 9:

E|---------------------------------------------------------------------------------------------------------------
B|---------------------------------------------------------------------------------------------------------------
G|---------------------------------------------------------------------------------------------------------------
D|-------------------------------------------------------------------------8--10---------8--10-------------------
A|-----------10-----------8--------6--8-----------6--------------5--8--10---------8--10---------8--10--10--9--8--
E|--8--8--8--8---6--6--6--6--6--8--------4--4--4--4--3--3--3--3--3-------------------------------------8---7--6--

Stave 10:

E|---------------------------------------------------------------------------------------------------------------------------------------
B|---------------------------------------------------------------------------------------------------------------------------------------
G|---------------------------------------------------------------------------------------------------------------------------------------
D|---------8--10---------8--10---------8--10---------8--10---------8--10---------8--10---------8--10---------8--10---------8--10---------
A|--8--10---------8--10---------8--10---------8--10---------8--10---------8--10---------8--10---------8--10---------8--10---------8--10--
E|---------------------------------------------------------------------------------------------------------------------------------------

Stave 11:

E|------------------------------------------------------------------------------------------------------------------------
B|------------------------------------------------------------------------------------------------------------------------
G|---------------------------------------------------------------------------------------------------------5--4--3--------
D|---------------------------------------------------5-----------8--------5--6-----------------------------0--0--0--------
A|--10--9--8-----------6--------------5-----3--3--3--3--6--6--6--6--5--6-----------------6--------------5--3--2--1--6-----
E|--8---7--6--4--4--4--4--3--3--3--3--3--3--------------------------------------4--4--4--4--3--3--3--3--3-----------------

Stave 12:

E|-----------------------------------------------------------------------------------------------------------------------------
B|-----------------------------------------------------------------------------------------------------------------------------
G|-----------------------------------------------------------5--4--3--------10\5-----4--5--5/7---------------------------------
D|-------------------------5----------8----------------------0--0--0----------------------------5-----5/8-----5/10--9--10--12--
A|-----6--------5-----1/3-----3--3/6----------6--------5-----3--2--1--6--------------------------------------------------------
E|--4-----4--3-----3---------------------1/4-----4--3-----3--------------------------------------------------------------------

Stave 13:

E|----------------------------------------------------------------------11--13--11------11----------------------11--13--11--13-----13b
B|-------------11-----11----------------------11--13b---11--------5/12--------------13------13--11----------13------------------------
G|--10-----12-------------10--12--------5/12--------------------------------------------------------12--11----------------------------
D|------------------------------------------------------------------------------------------------------------------------------------
A|------------------------------------------------------------------------------------------------------------------------------------
E|------------------------------------------------------------------------------------------------------------------------------------

Stave 14:

E|--------------------------------------------------------------------------------------------------------------------
B|--------------------------------------------------------------------------------------------------------------------
G|--------------------------------------------------------------------------------------------------------5--4--3-----
D|-----------------------------------------------------------------5--6-----------------------------------0--0--0-----
A|-----------------------------------3--3--3--3--6--6--6--6--5--6-----------------------------------------3--2--1--6--
E|--4--4--4--4--3--3--3--3--3--3--3-----------------------------------------4--4--4--4--3--3--3--3--3--3--------------

							http://www.guitartabcreator.com
Instruments
{"strings":[[[".",".",".",".",".",".",".","_",".",".",".",".",".",".",".",".",".","_",6,"_",".",".",".",".",".",".",".",".",".",".",".",".",".",".",".",".",".",".",".",".",".",".",".",".","."],[".",".",".",".",".",".",".","_",".",".",".",".",".",".",".",".",11,"_",9,"_",".",".",".",".",".",".",".",".",".",".",".",".",".",".",".",".",".",".",".",".",".",".",".",".","."],[4,4,5,7,".",".",".","_",".",".",".",".",".",".",10,12,".","_",0,"_",".",".",".",".",".",".",".",".",".",".",".",".",".",".",".",".",".",".",".",".",".",".",".",".","."],[0,".",".",".",5,"/",8,"_",3,"/",9,9,10,12,".",".",".","_",0,"_",".",".",".",".",".",".",".",".",".",".",".",".",".",".",".",".",".",".",".",".",".",".",".",5,6],[0,".",".",".",".",".",".","_",".",".",".",".",".",".",".",".",".","_",0,"_",".",".",".",".",".",".",".",".",".",".",".",".",".",3,3,3,3,6,6,6,6,5,6,".","."],[".",".",".",".",".",".",".","_",".",".",".",".",".",".",".",".",".","_",".","_",19,"\\",4,4,4,4,3,3,3,3,3,3,3,".",".",".",".",".",".",".",".",".",".",".","."]],[[".",".",".",".",".",".",".",".",".",".",".",".",".",".",".",".",".",".",".",".",".",".",".",".",".",".",".",".",".",".","_",".",".",".",".",".",".",".",".",".","."],[".",".",".",".",".",".",".",".",".",".",".",".",".",".",".",".",".",".",".",".",".",".",".",".",".",".",".",".",".",".","_",".",".",".",".",".",".",".",".",".","."],[".",".",".",".",".",".",".",".",".",".",".",5,4,3,".",".",".",".",".",".",".",".",".",".",".",".",".",".",".",".","_",".",".",".",".",".",".",5,4,2,"."],[".",".",".",".",".",".",".",".",".",".",".",0,0,0,".",".",".",".",".",".",".",".",".",".",5,".",".",".",8,".","_",".",".",".",".",".",".",0,0,0,"."],[".",".",".",".",".",".",".",".",".",".",".",3,2,1,6,".",".",6,".",5,".",1,"/",3,".",3,"/",6,".",6,"_",".",".",".",6,".",5,3,2,1,6],[4,4,4,4,3,3,3,3,3,3,3,".",".",".",".",".",4,".",3,".",3,".",".",".",".",".",".",".",".",".","_",1,"/",4,".",3,".",".",".",".","."]],[[".",".",".",".",".",".",".",".",".",".",".",".",".",".",".",".",".",".",".",".",".",".",".",".",".",".",".",".",".",".",".",".",".",".",".",".",".",".",".",".",".",".",".","."],[".",".",".",".",".",".",".",".",".",".",".",".",".",".",".",".",".",".",".",".",".",".",".",".",".",".",".",".",".",".",".",".",".",".",".",".",".",".",".",".",".",".",".","."],[".",".",".",".",".",".",".",".",".",".",".",".",".",".",".",".",".",".",".",".",".",".",".",".",".",".",".",".",".",".",".",".",".",".",".",".",".",".",".",".",".",".",".","."],[".",".",".",".",".",".",".",".",".",".",".",".",".",".",".",".",".",".",".",".",".",5,6,".",".",".",".",".",".",".",".",".",".",".",".",".",".",".",".",".",".",".",".","."],[".",".",".",".",".",".",".",".",".",".",".",3,3,3,3,6,6,6,6,5,6,".",".",".",".",".",".",".",".",".",".",".",".",".",".",".",6,8,".",".",6,8,"/",10],[4,4,4,4,3,3,3,3,3,3,3,".",".",".",".",".",".",".",".",".",".",".",".",4,4,4,4,3,3,3,3,3,3,3,6,8,".",".",6,8,".",".",".","."]],[[".",".",".",".",".",".",".",".",".",".",".",".",".",".",".",".",".",".",".",".",".",".",".",".",".",".",".",".",".",".",".",".",".",".",".",".","."],[".",".",".",".",".",".",".",".",".",".",".",".",".",".",".",".",".",".",".",".",".",".",".",".",".",".",".",".",".",".",".",".",".",".",".",".","."],[".",".",".",".",".",".",".",".",".",".",".",".",".",".",".",".",".",".",".",".",".",".",".",".",".",".",".",".",".",".",".",".",".",".",".",".","."],[".",".",".",".",".",".",".",".",".",".",".",".",".",".",".",".",".",".",".",".",".",".",".",".",5,6,".",".",".",".",".",".",".",".",".",".","."],[10,9,8,".",".",".",".",".",".",".",".",".",".",".",3,3,3,3,6,6,6,6,5,6,".",".",".",".",".",".",".",".",".",".",".",".","."],[8,7,6,4,4,4,4,3,3,3,3,3,3,3,".",".",".",".",".",".",".",".",".",".",".",".",4,4,4,4,3,3,3,3,3,3,3]],[[".",".",".",".",".",".",".",".",".",".",".",".",".",".",".",".","_",".",".",".",".",".",".","_",".",".",".","_",".",".",".",".",".",".",".",".",".",".",13],[".",".",".",".",".",".",".",".",".",".",".",".",".",".",".",".","_",".",".",".",".",".",".","_",".",".",".","_",".",".",".",".",".",".",".",".",11,13,"."],[".",".",".",".",".",".",".",".",".",".",".",".",".",10,"\\",5,"_",4,5,5,"/",7,".","_",".",".",".","_",".",".",".",".",".",".",10,12,".",".",12],[".",".",".",".",".",".",".",".",".",".",".",".",".",".",".",".","_",".",".",".",".",".",5,"_",5,"/",8,"_",5,"/",10,9,10,12,".",".",".",".","."],[".",".",6,8,".",".",6,8,"/",10,10,9,8,".",".",".","_",".",".",".",".",".",".","_",".",".",".","_",".",".",".",".",".",".",".",".",".",".","."],[6,8,".",".",6,8,".",".",".",".",8,7,6,".",".",".","_",".",".",".",".",".",".","_",".",".",".","_",".",".",".",".",".",".",".",".",".",".","."]],[[".",".",".",".",".",".",".",".",".",".",".",".",".",".",".",".",".",".",".",".",".",".",".",".",".",".",".","_",".",".",".",".",".",".",".",".",".","."],[".",".",".",".",".",".",".",".",".",".",".",".",".",".",".",".",".",".",".",".",".",".",".",".",".",".",".","_",".",".",".",".",".",".",".",".",".","."],[".",".",".",".",".",".",".",".",".",".",".",".",".",".",".",".",".",".",".",".",".",".",".",".",".",".",".","_",".",".",".",".",".",".",5,4,3,"."],[".",".",".",".",".",".",".",".",".",".",".",".",".",".",".",".",".",".",".",".",".",5,6,".",".",".",".","_",".",".",".",".",".",".",0,0,0,"."],[".",".",".",".",".",".",".",".",".",".",".",3,3,3,3,6,6,6,6,5,6,".",".",".",".",".",".","_",".",".",".",".",".",".",3,2,1,6],[4,4,4,4,3,3,3,3,3,3,3,".",".",".",".",".",".",".",".",".",".",".",".",4,4,4,4,"_",3,3,3,3,3,3,".",".",".","."]],[[".",".",".",".",".",".",".",".",".",".",".",".",".",".",".",".",".",".",".",".",".",".",".","_",".",".",".",".",".",".",".",".",".",".",".",".",".",".",".",".",".",".",".",".","."],[".",".",".",".",".",".",".",".",".",".",".",".",".",".",".",".",".",".",".",".",".",".",".","_",".",".",".",".",".",".",".",".",".",".",".",".",".",".",".",".",".",".",".",".","."],[".",".",".",".",".",".",".",".",".",".",".",".",".",".",".",".",".",".",".",5,4,3,".","_",".",".",".",".",10,10,".",".",".",".",".",".",".",".",".",".",".",".",".",".","."],[".",".",".",".",".",".",".",".",5,".",".",".",8,".",".",".",".",".",".",0,0,0,".","_",".",".",".",".",".",".",".",".",".",".",".",".",".",".",".",".",".",".",".",".","."],[".",6,".",5,".",1,"/",3,".",3,"/",6,".",6,".",".",".",6,".",3,2,1,6,"_",".",".",".",".",".",".",".",".",".",".",".",".",".",".",".",".",".",".",".",".","."],[4,".",3,".",3,".",".",".",".",".",".",".",".",".",1,"/",4,".",3,".",".",".",".","_",4,4,6,4,".",".",3,3,3,3,3,"/",8,8,8,8,8,6,6,6,6]],[[".",".",".",".",".",".",".",".",".",".",".",".",".",".",".",".",".",".",".",".",".",".",".",".",".",".",".",".",".",".",".",".",".",".","."],[".",".",".",".",".",".",".",".",".",".",".",".",".",".",".",".",".",".",".",".",".",".",".",".",".",".",".",".",".",".",".",".",".",".","."],[".",".",".",".",".",".",".",".",".",".",".",".",".",".",".",".",".",".",".",".",".",".",".",".",".",".",".",".",".",".",".",".",".",".","."],[".",".",".",".",".",".",".",".",".",".",".",".",".",".",".",8,10,".",".",8,10,".",".",".",".",".",".",".",".",".",".",".",".",".","."],[".",".",6,8,".",".",".",6,".",".",".",".",5,8,10,".",".",8,10,".",".",8,10,10,9,8,".",".",".",6,".",".",".",".",5],[6,8,".",".",4,4,4,4,3,3,3,3,3,".",".",".",".",".",".",".",".",".",".",8,7,6,4,4,4,4,3,3,3,3,3]],[[".",".",".",".",".",".",".",".",".",".",".",".",".",".",".",".",".",".",".",".",".",".",".",".",".",".",".",".",".",".",".",".",".","."],[".",".",".",".",".",".",".",".",".",".",".",".",".",".",".",".",".",".",".",".",".",".",".",".",".",".",".",".",".",".",".",".",".","."],[".",".",".",".",".",".",".",".",".",".",".",".",".",".",".",".",".",".",".",".",".",".",".",".",".",".",".",".",".",".",".",".",".","."],[".",".",".",".",".",".",".",".",".",".",".",".",".",".",".",".",".",".",".",".",".",".",".",8,10,".",".",8,10,".",".",".",".","."],[".",".",".",10,".",".",".",8,".",".",6,8,".",".",".",6,".",".",".",".",5,8,10,".",".",8,10,".",".",8,10,10,9,8],[8,8,8,8,6,6,6,6,6,8,".",".",4,4,4,4,3,3,3,3,3,".",".",".",".",".",".",".",".",".",".",8,7,6]],[[".",".",".",".",".",".",".",".",".",".",".",".",".",".",".",".",".",".",".",".",".",".",".",".",".",".",".",".",".",".",".",".",".",".",".",".",".","."],[".",".",".",".",".",".",".",".",".",".",".",".",".",".",".",".",".",".",".",".",".",".",".",".",".",".",".",".",".",".",".",".",".",".",".",".",".","."],[".",".",".",".",".",".",".",".",".",".",".",".",".",".",".",".",".",".",".",".",".",".",".",".",".",".",".",".",".",".",".",".",".",".",".",".",".","."],[".",".",8,10,".",".",8,10,".",".",8,10,".",".",8,10,".",".",8,10,".",".",8,10,".",".",8,10,".",".",8,10,".",".",8,10,".","."],[8,10,".",".",8,10,".",".",8,10,".",".",8,10,".",".",8,10,".",".",8,10,".",".",8,10,".",".",8,10,".",".",8,10,".",".",8,10],[".",".",".",".",".",".",".",".",".",".",".",".",".",".",".",".",".",".",".",".",".",".",".",".",".",".",".",".",".",".",".",".",".",".",".",".",".","."]],[[".",".",".",".",".",".",".",".",".",".",".",".",".",".",".",".",".",".",".",".",".",".",".",".",".",".",".",".",".",".",".",".",".",".",".",".",".",".","_"],[".",".",".",".",".",".",".",".",".",".",".",".",".",".",".",".",".",".",".",".",".",".",".",".",".",".",".",".",".",".",".",".",".",".",".",".",".",".","_"],[".",".",".",".",".",".",".",".",".",".",".",".",".",".",".",".",".",".",".",".",".",".",".",".",".",".",".",".",".",".",".",".",".",".",5,4,3,".","_"],[".",".",".",".",".",".",".",".",".",".",".",".",".",".",".",".",5,".",".",".",8,".",".",5,6,".",".",".",".",".",".",".",".",".",0,0,0,".","_"],[10,9,8,".",".",".",6,".",".",".",".",5,".",3,3,3,3,6,6,6,6,5,6,".",".",".",".",".",6,".",".",".",".",5,3,2,1,6,"_"],[8,7,6,4,4,4,4,3,3,3,3,3,3,".",".",".",".",".",".",".",".",".",".",".",".",4,4,4,4,3,3,3,3,3,".",".",".",".","_"]],[[".",".",".",".",".",".",".",".",".",".",".",".",".",".",".",".",".",".",".",".",".",".",".",".",".",".",".","_",".",".",".","_",".",".",".",".",".",".","_",".",".",".","_",".",".",".",".",".","."],[".",".",".",".",".",".",".",".",".",".",".",".",".",".",".",".",".",".",".",".",".",".",".",".",".",".",".","_",".",".",".","_",".",".",".",".",".",".","_",".",".",".","_",".",".",".",".",".","."],[".",".",".",".",".",".",".",".",".",".",".",".",".",".",".",".",".",".",".",".",".",".",".",5,4,3,".","_",10,"\\",5,"_",4,5,5,"/",7,".","_",".",".",".","_",".",".",".",".",".","."],[".",".",".",".",".",".",".",".",".",5,".",".",".",".",8,".",".",".",".",".",".",".",".",0,0,0,".","_",".",".",".","_",".",".",".",".",".",5,"_",5,"/",8,"_",5,"/",10,9,10,12],[".",6,".",".",5,".",1,"/",3,".",3,3,"/",6,".",".",".",".",6,".",".",5,".",3,2,1,6,"_",".",".",".","_",".",".",".",".",".",".","_",".",".",".","_",".",".",".",".",".","."],[4,".",4,3,".",3,".",".",".",".",".",".",".",".",".",1,"/",4,".",4,3,".",3,".",".",".",".","_",".",".",".","_",".",".",".",".",".",".","_",".",".",".","_",".",".",".",".",".","."]],[[".","_",".",".","_",".",".",".","_","_",".",".",".",".",".",".","_",".","_","_",".",".",".",11,13,11,".",11,".",".",".",".",".",11,13,11,13,"_",13,"b"],[".","_",".",11,"_",11,".",".","_","_",".",".",".",11,13,"b","_",11,"_","_",5,"/",12,".",".",".",13,".",13,11,".",".",13,".",".",".",".","_",".","."],[10,"_",12,".","_",".",10,12,"_","_",5,"/",12,".",".",".","_",".","_","_",".",".",".",".",".",".",".",".",".",".",12,11,".",".",".",".",".","_",".","."],[".","_",".",".","_",".",".",".","_","_",".",".",".",".",".",".","_",".","_","_",".",".",".",".",".",".",".",".",".",".",".",".",".",".",".",".",".","_",".","."],[".","_",".",".","_",".",".",".","_","_",".",".",".",".",".",".","_",".","_","_",".",".",".",".",".",".",".",".",".",".",".",".",".",".",".",".",".","_",".","."],[".","_",".",".","_",".",".",".","_","_",".",".",".",".",".",".","_",".","_","_",".",".",".",".",".",".",".",".",".",".",".",".",".",".",".",".",".","_",".","."]],[[".",".",".",".",".",".",".",".",".",".",".",".",".",".",".",".",".",".",".",".",".",".",".","_",".",".",".",".",".",".",".",".",".",".",".",".",".","."],[".",".",".",".",".",".",".",".",".",".",".",".",".",".",".",".",".",".",".",".",".",".",".","_",".",".",".",".",".",".",".",".",".",".",".",".",".","."],[".",".",".",".",".",".",".",".",".",".",".",".",".",".",".",".",".",".",".",".",".",".",".","_",".",".",".",".",".",".",".",".",".",".",5,4,3,"."],[".",".",".",".",".",".",".",".",".",".",".",".",".",".",".",".",".",".",".",".",".",5,6,"_",".",".",".",".",".",".",".",".",".",".",0,0,0,"."],[".",".",".",".",".",".",".",".",".",".",".",3,3,3,3,6,6,6,6,5,6,".",".","_",".",".",".",".",".",".",".",".",".",".",3,2,1,6],[4,4,4,4,3,3,3,3,3,3,3,".",".",".",".",".",".",".",".",".",".",".",".","_",4,4,4,4,3,3,3,3,3,3,".",".",".","."]]],"numberofstrings":6,"notes":["E","B","G","D","A","E","B"],"capo":0,"stringnotes":["E4","B3","G3","D3","A2","E2"],"comments":["Stave 1:","Stave 2:","Stave 3:","Stave 4:","Stave 5:","Stave 6:","Stave 7:","Stave 8:","Stave 9:","Stave 10:","Stave 11:","Stave 12:","Stave 13:","Stave 14:"],"timing":[["W","W","W","W","W",null,"W",null,"W",null,"W","W","W","W","W","W","W","W","W",null,"W",null,"W","W","W","W","W","W","W","W","W","W","W","W","W","W","W","W","W","W","W","W","W","W","W"],["W","W","W","W","W","W","W","W","W","W","W","W","W","W","W","W","W","W","W","W","W","W",null,"W","W","W","W","W","W","W",null,"W",null,"W","W","W","W","W","W","W","W"],["W","W","W","W","W","W","W","W","W","W","W","W","W","W","W","W","W","W","W","W","W","W","W","W","W","W","W","W","W","W","W","W","W","W","W","W","W","W","W","W","W","W",null,"W"],["W","W","W","W","W","W","W","W","W","W","W","W","W","W","W","W","W","W","W","W","W","W","W","W","W","W","W","W","W","W","W","W","W","W","W","W","W"],["W","W","W","W","W","W","W","W",null,"W","W","W","W","W",null,"W",null,"W","W","W",null,"W","W",null,"W",null,"W",null,"W",null,"W","W","W","W","W","W","W","W","W"],["W","W","W","W","W","W","W","W","W","W","W","W","W","W","W","W","W","W","W","W","W","W","W","W","W","W","W",null,"W","W","W","W","W","W","W","W","W","W"],["W","W","W","W","W","W",null,"W","W","W",null,"W","W","W","W",null,"W","W","W","W","W","W","W",null,"W","W","W","W","W","W","W","W","W","W","W",null,"W","W","W","W","W","W","W","W","W"],["W","W","W","W","W","W","W","W","W","W","W","W","W","W","W","W","W","W","W","W","W","W","W","W","W","W","W","W","W","W","W","W","W","W","W"],["W","W","W","W","W","W","W","W","W","W","W","W","W","W","W","W","W","W","W","W","W","W","W","W","W","W","W","W","W","W","W","W","W","W"],["W","W","W","W","W","W","W","W","W","W","W","W","W","W","W","W","W","W","W","W","W","W","W","W","W","W","W","W","W","W","W","W","W","W","W","W","W","W"],["W","W","W","W","W","W","W","W","W","W","W","W","W","W","W","W","W","W","W","W","W","W","W","W","W","W","W","W","W","W","W","W","W","W","W","W","W","W"],["W","W","W","W","W","W","W",null,"W","W","W","W",null,"W","W","W",null,"W","W","W","W","W","W","W","W","W","W",null,"W",null,"W",null,"W","W","W",null,"W","W",null,"W",null,"W",null,"W",null,"W","W","W","W","W"],["W",null,"W","W",null,"W","W","W",null,null,"W",null,"W","W","W",null,"W","W",null,null,"W",null,"W","W","W","W","W","W","W","W","W","W","W","W","W","W","W",null,"W"],["W","W","W","W","W","W","W","W","W","W","W","W","W","W","W","W","W","W","W","W","W","W","W",null,"W","W","W","W","W","W","W","W","W","W","W","W","W","W"]],"timingvisible":false,"tabcounter":38,"stave":13,"totalstaves":14,"instrument":"6guitar","selectedtuning":"6_standard","version":"13"}

Member for

1 month 3 weeks
Submitted by Yoochan Park on Tue, 2020-10-06 12:44