Sound will begin in 5 seconds

Infinity

Chords
01234567891011121314151617181920212223
E
B
G
D
A
E
B
0 1 2 3 4 5 6 7 8 9 10 11 12 13 14 15 16 17 18 19 20 21 22 23
Song Science #1: How Pros Use 6 Chords to Write Hit Songs
(/) Slide Up  (\) Slide Down  (h) Hammer On  (p) Pull Off  (b) Bend (r) Release (v) Vibrato

Stave 1:

E|-----------------|-----------------|-----------------|-----------------|-
B|-----------------|-----------------|-----1-------1---|-----1---------1-|-
G|-2-------2-------|-2---------------|-2-------2-------|-2-----2-0-------|-
D|---0-3-0---0-3-0-|---0-3-0-2-0---0-|---3---3---3---3-|---3-------3-0---|-
A|-----------------|-------------3---|-----------------|-----------------|-
E|-----------------|-----------------|-----------------|-----------------|-

Stave 2:

E|-----------------|-----------------|-----------------|-----------------|-
B|-----------------|-----------------|-----1-------1---|---------------1-|-
G|-2-------2-------|-2---------------|-2-------2-------|-----2-----2-----|-
D|---0-3-0---0-3-0-|---0-3-0-----3-0-|---3---3---3---3-|-0-3---3-3---3---|-
A|-----------------|---------3-2-----|-----------------|-----------------|-
E|-----------------|-----------------|-----------------|-----------------|-

Stave 3:

E|-
B|-
G|-
D|-
A|-
E|-

Stave 4:

E|----------------------------------------------|-----------------------------------------|-
B|-------13-------13-------13-------16-------14-|-------9-------9-------9-11-9----------9-|-
G|----13-------13-------13-------13-------13----|----10------10------10--------10----10---|-
D|-15-------15-------15-------15-------15-------|-11------11------11--------------11------|-
A|----------------------------------------------|-----------------------------------------|-
E|----------------------------------------------|-----------------------------------------|-

Stave 5:

E|----------------------------------------------|----------------------------------------------|-
B|----------------------------------------------|----------------------------------------------|-
G|----10-------10-------10----10-12-13----10----|----------------------------------------------|-
D|-11----13-11----13-11----13----------11----13-|----10-13----10-13----10-13----10-13----10-13-|-
A|----------------------------------------------|-11-------11-------11-------11-------11-------|-
E|----------------------------------------------|----------------------------------------------|-

Stave 6:

E|----------------------------------------------|---------------------------------|-
B|-------13-------13-------13-------16-------14-|---------------------------------|-
G|----13-------13-------13-------13-------13----|---------------------------------|-
D|-15-------15-------15-------15-------15-------|---------------------------------|-
A|----------------------------------------------|---------------3-----3-----3---3-|-
E|----------------------------------------------|-1-1-4-1-1-4-1---1-1---1-4---4---|-

Stave 7:

E|---------------------------|---------------------------------|-
B|---------------------------|---------------------------------|-
G|---------------------------|---------------------------------|-
D|-----------------8---------|-----------------5---5---5---5---|-
A|-4-4---6-6---6-6---6-8-6---|-6-3-6-3-6-3-6-3---3---3---3---3-|-
E|-----4-----4-------------4-|---------------------------------|-

Stave 8:

E|---------------------------------|---------------------------------|-
B|---------------------------------|---------------------------------|-
G|---------------------------------|---------------------------------|-
D|---------------------------------|---------------------------------|-
A|---------------3-----3-----3---3-|---------------3-----3-----3---3-|-
E|-1-1-4-1-1-4-1---1-1---1-4---4---|-1-1-4-1-1-4-1---1-1---1-4---4---|-

Stave 9:

E|---------------------------------|---------------------------------|-
B|---------------------------------|---------------------------------|-
G|---------------------------------|---------------3-----3-----3---3-|-
D|---------------3-----3-----3---3-|-----4-----4-------------4---4---|-
A|-----4-----4-------------4---4---|-4-4---4-4---4---4-4---4---------|-
E|-4-4---4-4---4---4-4---4---------|---------------------------------|-

Stave 10:

E|---------------------------------|-
B|---------------------------------|-
G|---------------------------------|-
D|---------------------------------|-
A|---------------------------------|-
E|-0-0-3-0-0-3-0-5-0-0-5-0-3-5-3-5-|-

Stave 11:

E|--------|---------------------------|---------------|---------------|-
B|--------|---------------------------|---------------|---------------|-
G|-9------|---------------------------|---------------|---------------|-
D|-9-7-10-|-3-0-2-0-0-5-0-0-2-0-0-5-0-|---------------|-----------2---|-
A|-7-7-10-|---------------------------|-2-2-5-2-2-5-2-|-2-3-2-5-2---3-|-
E|---5-8--|---------------------------|---------------|---------------|-

Stave 12:

E|---------------------------------|-
B|---------------------------------|-
G|---------------------------------|-
D|-0-------------------------------|-
A|-------------2-------3-------5---|-
E|---3-5-3-3-3---3-3-3---3-3-3---3-|-

Stave 13:

E|-
B|-
G|-
D|-
A|-
E|-

Stave 14:

E|-
B|-
G|-
D|-
A|-
E|-

Stave 15:

E|-----------|-----------|-----------|-----------|-----------|-----------|-
B|-----------|-----------|-----------|-----------|-----------|-----------|-
G|-----------|-----------|-----2---2-|-----2---2-|-----------|-----------|-
D|-----5---5-|-----5---5-|---2---2---|---2---2---|---2-3---3-|---2-3---3-|-
A|---3---3---|---3---3---|-3---------|-3---------|-------3---|-------3---|-
E|-5---------|-5---------|-----------|-----------|-3---------|-3---------|-

Stave 16:

E|-----------|-----------|-
B|-----------|-----------|-
G|-----3---3-|-----3---3-|-
D|---3---1---|---3---1---|-
A|-----------|-----------|-
E|-1---------|-1---------|-

Stave 17:

E|-
B|-
G|-
D|-
A|-
E|-

Stave 18:

E|-----------------------------|-------------------------------|-
B|-----------------------------|-------------------------------|-
G|-----------------------------|-------------------------------|-
D|-----------------------------|---------------------------5-5-|-
A|-0-0-0-0-0-0-0-0-0-0-0-0-0-0-|-0-0-0-0-0-0-0-0-0-0-0-3-3-----|-
E|-----------------------------|-------------------------------|-

Stave 19:

E|---------|---------|---------|---------|---------|---------|-
B|---------|---------|---------|---------|---------|---------|-
G|---------|---------|---------|---------|---------|---------|-
D|---------|-----5-5-|---------|-----3-5-|---------|---5---5-|-
A|---------|-3-3-----|---------|-3-5-----|---------|-3---3---|-
E|-0-0-0-0-|---------|-0-0-0-0-|---------|-0-0-0-0-|---------|-

Stave 20:

E|-------------------------------------------------|-
B|-------------------------------------------------|-
G|-------------------------------------------------|-
D|-------------------------------12----------------|-
A|-12-14-15-14-12-14-15-14-12-15----15-14-12----12-|-
E|-------------------------------------------15----|-

Stave 21:

E|-------------------------------------------------|-------------------------------------------------|-
B|-------------------------------------------------|-------------------------------------------------|-
G|-------------------------------------------------|-------------------------------------------------|-
D|-------------------------------12----------17-17-|-------------------------------------------------|-
A|----------------12-14-12-15-12----12-15-15-------|----------------15----17----------------12-14-12-|-
E|-15-13-12-13-15----------------------------------|-15-17-15-19-15----15----15-19-15-13-15----------|-

http://www.guitartabcreator.com
Guitar Tab Creator is intended to store guitar tab created through the tool. It currently does not support in-line text editing. Any text you place in here will be lost. If you need to comment on your tab, please use the "Tab Notes" section located below.