Sound will begin in 5 seconds

The Dream Maker

Chords
01234567891011121314151617181920212223
E
B
G
D
A
E
B
0 1 2 3 4 5 6 7 8 9 10 11 12 13 14 15 16 17 18 19 20 21 22 23
Song Science #1: How Pros Use 6 Chords to Write Hit Songs
(/) Slide Up  (\) Slide Down  (h) Hammer On  (p) Pull Off  (b) Bend (r) Release (v) Vibrato

Stave 1:

E|-----------------|-----------------|-----------------|-----------------|-
B|-----------------|-----------------|-----------------|-----------------|-
G|-----------------|-----------------|-----------------|-----------------|-
D|-----------------|-----------------|-----------------|-----------------|-
A|---2-3-2---2-3-2-|---2-3-2-2-3-2-0-|-----2-0-----2-0-|-----2-0-----2-0-|-
E|-0-------0-------|-0---------------|-0-3-----0-3-----|-0-3-----2-1-----|-

Stave 2:

E|-----------------|-----------------|-----------------|-------------|---
B|-----------------|-----------------|-----------------|-------------|---
G|-----------------|-----------------|-----------------|-------------|---
D|-----------------|-----------------|-2---------------|-2-2-2-2-2-2-|---
A|---2-2-2h3-2-3-2-|---2-2-3-2-0-2---|---3-0-2-2h3-2---|-0-2-2-3-2-0-|---
E|-0---------------|-0-------------3-|---------------3-|-------------|---

Stave 3:

E|---------------------------------|---------------------------------|-
B|---------------------------------|---------------------------------|-
G|-----------------------------2-2-|---------------------------------|-
D|---------4-4-----5-5-------------|---------5-5-----2-2-------------|-
A|-2-2-2-2-----2-2-----2-2-2-2-----|-2-2-2-2-----2-2-----2-2-2-2-3-3-|-
E|---------------------------------|---------------------------------|-

Stave 4:

E|---------------------------------|---------------------------------|-
B|---------------------------------|---------------------------------|-
G|---------------------------------|-------------------------2-------|-
D|-----------------2-2-----0-2-4-5-|-----------------2-4-5-4---4-2-0-|-
A|-2-2-2-2-5-5-2-2-----2-2---------|-2-2-2-2-5-3-2-5-----------------|-
E|---------------------------------|---------------------------------|-

Stave 5:

E|---------------------------------|---------------------------------|-
B|---------------------------------|---------------------------------|-
G|---------------------------------|-----------------------------2---|-
D|---------------------------------|-----------------0-2-4-2-0-4---4-|-
A|-2-2-2-2-2-2-2-2-2-2-2-2-2-2-2-2-|-2-2-2-2-2-2-2-2-----------------|-
E|---------------------------------|---------------------------------|-

Stave 6:

E|---------------------------------|---------------------------------|-
B|---------------------------------|---------------------------------|-
G|---------------------------------|-0-0-------------0-0-----0-0-----|-
D|---------------------------------|---------2-2---------2-2-----0-0-|-
A|-2-2-2-2-2-2-2-2-2-2-2-2-2-2-2-2-|-----2-2-----2-2-----------------|-
E|---------------------------------|---------------------------------|-

Stave 7:

E|---------------------------------|---------------------|---------------------------------|-
B|---------------------------------|---------------------|---------------------------------|-
G|---------------------------------|---------------------|---------------------------------|-
D|---------------------------------|-0---0---0---0---0-0-|---------------------------------|-
A|-2-2-2-2-2-2-2-2-2-2-2-2-2-2-2-0-|---0---0---0---0-----|-2-2-2-2-2-2-2-2-2-2-2-2-2-2-2-2-|-
E|---------------------------------|---------------------|---------------------------------|-

Stave 8:

E|---------------------------------|---------------------------------|---------------------------------
B|---------------------------------|---------------------------------|---------------------------------
G|---------------------------------|---------------------------------|---------------------------------
D|---------2-2-0-0---------2-2-0-0-|---------2-----0-0-----0-0-------|---------2-----0-0-----0---------
A|-2-2-2-2---------2-2-2-2---------|-2-2-2-2---2-2-----2-2-----2-0-0-|-2-2-2-2---2-2-----2-2-----------
E|---------------------------------|---------------------------------|-------------------------3-3-5-5-

Stave 9:

E|-----------------------|---------------------------------|-
B|-----------------------|---------------------------------|-
G|-----------------------|---------------------------------|-
D|---------0---------0-0-|-4-2-----2-4-----0-2-----2-0-2-0-|-
A|-2-2-2-2---2-2-2-2-----|-----2-2-----2-2-----2-2---------|-
E|-----------------------|---------------------------------|-

Stave 10:

E|-----------------|-----------------|-----------------|-----------------|-----------------|-
B|-----------------|-----------------|-----------------|-----------------|-----------------|-
G|-----------------|-----------------|-----------------|-----------------|-----------------|-
D|-2-----2-----2---|-2-----2---------|-5-----5-----5---|-5-----5-----5-5-|-----------------|-
A|---2-2---2-2---2-|---2-2---2-2-2-2-|---2-2---2-2---2-|---2-2---2-2-----|-5-----5-----5---|-
E|-----------------|-----------------|-----------------|-----------------|---3-3---3-3---3-|-

Stave 11:

E|-----------------|-----------------|-------------
B|-----------------|-----------------|-------------
G|-----------------|-----------------|-------------
D|-----------------|-0-----0-----0---|-0-0-0---0---
A|-5-----5-----5-5-|---0-0---0-0---0-|-------0---0-
E|---3-3---3-3-----|-----------------|-------------

Stave 12:

E|-----------------|-----------------|-----------------|---------------|-
B|-----------------|-----------------|-----------------|---------------|-
G|---0-0-----0-0---|---0-0-----------|---0-0-----0-0---|---0-0---------|-
D|-----------------|-----------7-7-5-|-----------------|-------------7-|-
A|-2-----2/3-----3/|-5-----5-5-------|-2-----2/3-----3/|-5-----5-5-5---|-
E|-----------------|-----------------|-----------------|---------------|-

Stave 13:

E|-----------------|---------------|---------------------------3-
B|---1-1-----1-1---|---0-0-----3-3-|---1-1-----0-0-----3-3---0---
G|---------0-----0-|-0-----0-2-----|-------0-0-----0-2-----------
D|-2-----2---------|---------------|-2---------------------4-----
A|-----------------|---------------|-----------------------------
E|-----------------|---------------|-----------------------------

Stave 14:

E|-------15-15-15-15-------------15-15-13-12----12-|----12-15-12-15-12-------------17-17-17-14----|-
B|-12-12-------------12-12-13-13-------------13----|-15----------------15-15-15-15-------------15-|-
G|-------------------------------------------------|----------------------------------------------|-
D|-------------------------------------------------|----------------------------------------------|-
A|-------------------------------------------------|----------------------------------------------|-
E|-------------------------------------------------|----------------------------------------------|-

Stave 15:

E|-------15-15-15-15----------------15-13-12----------|-------15----15-------15-15----------17-17-17-17-|-
B|-12-12-------------12-12-13-13-15----------15-13-12-|-15-15----15----15-15-------15-15-15-------------|-
G|----------------------------------------------------|-------------------------------------------------|-
D|----------------------------------------------------|-------------------------------------------------|-
A|----------------------------------------------------|-------------------------------------------------|-
E|----------------------------------------------------|-------------------------------------------------|-

Stave 16:

E|-------20-19-20-17-------15-17-20-20-15-|----19-19----17-23----|-
B|-17-17-------------17-17----------------|-20-------20-------20-|-
G|----------------------------------------|----------------------|-
D|----------------------------------------|----------------------|-
A|----------------------------------------|----------------------|-
E|----------------------------------------|----------------------|-

Stave 17:

E|---8-8-----7-7---|----10-10-------15-15-
B|-5-----8-8-----8-|-10----------12----12-
G|-----------------|----------11-------11-
D|-----------------|----------------------
A|-----------------|----------------------
E|-----------------|----------------------

Stave 18:

E|-------------|-0-0-0-0-0-0-|-3-----------|-2-2-2-2-2-2-|-------------|-0-0-0-0-0-0-|-3-----------|-
B|-0-0-0-0-0-0-|-------------|-3-3-3-3-3-3-|-3-----------|-0-0-0-0-0-0-|-------------|-3-3-3-3-3-3-|-
G|-------------|-------------|-------------|-------------|-------------|-------------|-------------|-
D|-------------|-------------|-------------|-------------|-------------|-------------|-------------|-
A|-------------|-------------|-------------|-------------|-------------|-------------|-------------|-
E|-------------|-------------|-------------|-------------|-------------|-------------|-------------|-

Stave 19:

E|-------------------|-
B|-12-12-12-12-12-12-|-
G|-12----------------|-
D|-------------------|-
A|-------------------|-
E|-------------------|-

Stave 20:

E|-----------------|-----------------|---------------|-7-7-7-7-7-7-|-
B|-----------------|-----------------|---------------|-7-7-7-7-7-7-|-
G|-----------------|-5---5-5---5-5-5-|-7---7---7-7-7-|-4-4-4-4-4-4-|-
D|-2-----2-----2---|-5---5-5---5-5-5-|-7---7---7-7-7-|-------------|-
A|-2-----2-----2---|-3-3-3-3-3-3-3-3-|-5-5-5-5-5-5-5-|-------------|-
E|-0-0-0-0-0-0-0-0-|-----------------|---------------|-------------|-

Stave 21:

E|-0-0-0-0-0-0-0-|-0-|---|---|-
B|-0-0-0-0-0-0-0-|-0-|---|---|-
G|-1-1-1-1-1-1-1-|-1-|---|-7-|-
D|-2-2-2-2-2-2-2-|-2-|-5-|-7-|-
A|-2-2-2-2-2-2-2-|-3-|-5-|-5-|-
E|-0-0-0-0-0-0-0-|---|-3-|---|-

Stave 22:

E|---
B|---
G|-4-
D|-4-
A|-2-
E|---

Stave 23:

E|---------------------------------|---------------------------------|---------------------|-
B|---------------------------------|---------------------------------|---------------------|-
G|---------------------------------|---------------------------------|---------------------|-
D|-2-2-----2-2-----2-2-----0-0-----|-0-0-2---2-2-0-0-2-2---2-0-0-----|---------------------|-
A|-----3-3-----3-3-----3-3-----0-0-|-------3-------------3-------3-3-|-----0-3-3---0-0-3-3-|-
E|---------------------------------|---------------------------------|-3-3-------3---------|-

Stave 24:

E|-------------------------------|---------------------------------|---------------------------------|-
B|-------------------------------|---------------------------------|---------------------------------|-
G|-------------------------------|---0-2-0-2-0---------------------|---0-0-0-2---0-2-4-2-0-2-0-2-2-2-|-
D|-0-2-3-2-3-5-2-0-2---0-3-0-2-0-|-3-----------3-2-0-2-0-2-3-2-0-2-|-3---------3---------------------|-
A|-------------------3-----------|---------------------------------|---------------------------------|-
E|-------------------------------|---------------------------------|---------------------------------|-

Stave 25:

E|---------------------------------|-
B|---------------------------------|-
G|-4-4-4-4-4-4-4-4-7-7-7-7-7-7-7-7-|-
D|---------------------------------|-
A|---------------------------------|-
E|---------------------------------|-

Stave 26:

E|-3-3-----3-3-----|-3-3-----3-3-----|-3-3-----3-3-----|-3-3-----3-3-----|-5-5-----5-5-----|-
B|-----0-0-----0-0-|-----0-0-----0-0-|-----5-5-----5-5-|-----5-5-----5-5-|-----3-3-----3-3-|-
G|-----------------|-----------------|-----------------|-----------------|-----------------|-
D|-----------------|-----------------|-----------------|-----------------|-----------------|-
A|-----------------|-----------------|-----------------|-----------------|-----------------|-
E|-----------------|-----------------|-----------------|-----------------|-----------------|-

Stave 27:

E|-5-5-----5-5-----|-7-7-----7-7-----|-7-7-----7-7-----|-
B|-----3-3-----3-3-|-----7-7-----7-7-|-----7-7-----7-7-|-
G|-----------------|-----------------|-----------------|-
D|-----------------|-----------------|-----------------|-
A|-----------------|-----------------|-----------------|-
E|-----------------|-----------------|-----------------|-

http://www.guitartabcreator.com
Guitar Tab Creator is intended to store guitar tab created through the tool. It currently does not support in-line text editing. Any text you place in here will be lost. If you need to comment on your tab, please use the "Tab Notes" section located below.